Mourning Widows - Furnished Souls For Rent Chords & Tabs

 

Furnished Souls For Rent Chords & Tabs

Mourning Widows Chords & Tabs

Version: 1 Type: Tab 0 ratings
1 star 2 stars 3 stars 4 stars 5 stars
comments

Furnished Souls For Rent Tab

   
*** FURNISHED SOULS FOR RENT ***(transcription by Antonio)17/04/01

Mourning Widows--Furnished Souls For Rent
 Music - N.Bettencourt
 Lyrics - N.Bettencourt


 TUNE GUITAR DOWN 1 STEP  (D G C F A D)


 pick      
 slide      1/4           1/4            1/4            1/4
|---------------------------------------------------------------| 
|---------------------------------------------------------------| 
|---------------------------------------------------------------| 
|-\\\---0--3bu-----0--0-0-3bu-----0--0-0-3bu-----0--0-0-3bu-----| 
|-\\\---0----------0--0-0---------0--0-0---------0--0-0---------| 
|---------------------------------------------------------------| 


            1/4           1/4            1/4            1/4
|---------------------------------------------------------------| 
|---------------------------------------------------------------| 
|---------------------------------------------------------------| 
|--0--0-0--3bu-----0--0-0-3bu-----0--0-0-3bu-----0--0-0-3bu-----| 
|--0--0-0----------0--0-0---------0--0-0---------0--0-0---------| 
|---------------------------------------------------------------|
                                                              I wanna

      1/4  1/4      (all of these bends are 1/4)
|---------------------------------------------------------------| 
|---------------------------------------------------------------| 
|---------------------------------------------------------------| 
|--0-3bu0--3bu-----0--0-0-3bu-----0--0-0--3bu----0--0-0-3bu-----| 
|--0-3bu0----------0--0-0---------0--0-0---------0--0-0---------| 
|----1bu--------------------------------------------------------|
get off now      in the back    of the car    where I know


|-----------------------------------------|---------------------| 
|-----------------------------------------|---------------------|Rest of the
|-----------------------------------------|---------------------|verse is the
|--0--0-0--3bu-----0--0-0-3bu----0-0-0-3--|--0--3bu---0--0-0-3bu|same.
|--0--0-0----------0--0-0--------0-0-0-3--|--0--------0--0-0----|
|--------------------------------------1--|---------------------|
weïllgo far                                Face      is so nice


  name your price,name your place, I wanna get off now, hey, hey, hey

  dive down slide
|--------------------| 
|--------------------| 
|--------------------| 
|--5\\----\--\-------| 
|--5\\----\---\------| 
|--------------------| 
 hey       heeeey


CHORUS  

|----------------------------------------------------------------------| 
|----------------------------------------------------------------------| 
|-5-5-5-5-5-5-5-5---5-5-5-5-5-5-5-5---5-5-5-5-5-5-5-5---5-5-5-5-5-5-5-5| 
|-5-5-5-5-5-5-5-5---5-5-5-5-5-5-5-5---5-5-5-5-5-5-5-5---5-5-5-5-5-5-5-5| 
|-3-3-3-3-3-3-3-3---2-2-2-2-2-2-2-2------------------------------------| 
|-------------------------------------6-6-6-6-6-6-6-6---5-5-5-5-5-5-5-5| 
  She    is         heaven  sheïs my  haven  my  es-   cape    she goes

|-------------------| 
|-------------------| 
|-------------------| 
|-6-6-6-6-6-6-6-6---| 
|-6-6-6-6-6-6-6-6---| 
|-4-4-4-4-4-4-4-4---| 
  all the way

|----------------------------------------------------------------------| 
|----------------------------------------------------------------------| 
|-5-5-5-5-5-5-5-5---5-5-5-5-5-5-5-5---5-5-5-5-5-5-5-5---5-5-5-5-5-5-5-5| 
|-5-5-5-5-5-5-5-5---5-5-5-5-5-5-5-5---5-5-5-5-5-5-5-5---5-5-5-5-5-5-5-5| 
|-3-3-3-3-3-3-3-3---2-2-2-2-2-2-2-2------------------------------------| 
|-------------------------------------6-6-6-6-6-6-6-6---5-5-5-5-5-5-5-5| 
  She   knowns no   glory tells her   stories with her  face   furnished

|----------------------------------| 
|----------------------------------| 
|----------------------------------| 
|-6-6-6-6-6-6-6-6-6-6-6-6-6-6-6-6--|  
|-6-6-6-6-6-6-6-6-6-6-6-6-6-6-6-6--|
|-4-4-4-4-4-4-4-4-4-4-4-4-4-4-4-4--|  
  souls for rent


 Then back to this part.

|---------------------------------------| 
|---------------------------------------| 
|---------------------------------------|etc.(same as before)
|-5\\----\--\---0--3bu---0--0-0--3bu----| 
|-5\\----\--\---0--------0--0-0---------| 
|---------------------------------------| 


(verses)I wanna get off now in the back   of the bar where I know
        it will start       with a means  to an end   in the end


|----------------------------------------------------------| 
|----------------------------------------------------------| 
|----------------------------------------------------------| 
|--X-X-X-X--X-X-X-X-----3bu-----0--0-X-X-X-X-X-X--3bu------| 
|--X-X-X-X--X-X-X-X-------------0--0-X-X-X-X-X-X-----------| 
|----------------------------------------------------------| 
  I wanna get off now   hey                      hey


|----------------------------------------------------------| 
|----------------------------------------------------------| 
|----------------------------------------------------------| 
|--0--0-X-X-X-X-X-X-----3bu-----0--0-X-X-X-X-X-X--5\\--\---| 
|--0--0-X-X-X-X-X-X-------------0--0-X-X-X-X-X-X--5\\--\---| 
|----------------------------------------------------------| 
                        hey               heey   hey


CHORUS II


|----------------------------------------------------------------------| 
|----------------------------------------------------------------------| 
|-5-5-5-5-5-5-5-5---5-5-5-5-5-5-5-5---5-5-5-5-5-5-5-5---5-5-5-5-5-5-5-5| 
|-5-5-5-5-5-5-5-5---5-5-5-5-5-5-5-5---5-5-5-5-5-5-5-5---5-5-5-5-5-5-5-5| 
|-3-3-3-3-3-3-3-3---2-2-2-2-2-2-2-2------------------------------------| 
|-------------------------------------6-6-6-6-6-6-6-6---5-5-5-5-5-5-5-5| 
  She    is         heaven  sheïs my  haven  my  es-   cape    she goes

|-------------------| 
|-------------------| 
|-------------------| 
|-6-6-6-6-6-6-6-6---| 
|-6-6-6-6-6-6-6-6---| 
|-4-4-4-4-4-4-4-4---| 
  all the way

|----------------------------------------------------------------------| 
|----------------------------------------------------------------------| 
|-5-5-5-5-5-5-5-5---5-5-5-5-5-5-5-5---5-5-5-5-5-5-5-5---5-5-5-5-5-5-5-5| 
|-5-5-5-5-5-5-5-5---5-5-5-5-5-5-5-5---5-5-5-5-5-5-5-5---5-5-5-5-5-5-5-5| 
|-3-3-3-3-3-3-3-3---2-2-2-2-2-2-2-2------------------------------------| 
|-------------------------------------6-6-6-6-6-6-6-6---5-5-5-5-5-5-5-5| 
  She   knowns no   glory tells her   stories with her  face   furnished

|----------------------------------------------------------| 
|----------------------------------------------------------| 
|----------------------------------------------------------| 
|-6-6-6-6-6-6-6--6--6-6---6--6-6--------6--6-6------5\\--\-|  
|-6-6-6-6-6-6-6--6--6-6---6--6-6--------6--6-6------5\\--\-|
|-4-4-4-4-4-4-4--4--4-4---4--4-4--------4--4-4-------------|  
  souls for rent          furnished souls for rent 


SOLO
   ....noises...more feedback noise....rub strings(here we go!)
|----------------------------------------------------------------------|
|----------------------------------------------------------------------| 
|----------------------------------------------------------------------| 
|--0----------------------------------------\--------------------------| 
|--0----------------------------------------\--------------------------| 
|----------------------------------------------------------------------| 

                                        ....
|----------------------------------------------------------------------|
|-12--10--10-10-10--10--10--10--10-10-10-------13-13-13-13-13-13-12-10-| 
|-----10--10-10-10--10--10--10--10-10-10-------------------------------| 
|----------------------------------------------------------------------| 
|----------------------------------------------------------------------| 
|----------------------------------------------------------------------| 

                                                  ends with   1   1/2
|----------------------------------------------------------------------| 
|--10-10--------------------hold-on-------------------------15bu17bu15-| 
|--------12-10---10------------a-----------this-is---------------------| 
|-------------12------------second---------too-much--------------------| 
|-------------------------------------------for-me---------------------| 
|----------------------------------------------------------------------| 
[ Tab from: http://www.guitartabs.cc/tabs/m/mourning_widows/furnished_souls_for_rent_tab.html ]
 I just canït figure the solo out, so do as I do: noises, some scale up,
 some scale down, some fast notes and a lot of bends and artificial
 harmonics.

|----------------------------------------------------------------------| 
|----------------------------------------------------------------------| 
|----------------------------------------------------------------------| 
|--0---3bu-----0--0-0--3bu----0--0-0--3bu-------0--0-0--3bu------------| 
|--0-----------0--0-0---------0--0-0------------0--0-0-----------------| 
|----------------------------------------------------------------------| 
                                                              I wanna get


|----------------------------------------------------------------------| 
|----------------------------------------------------------------------| 
|----------------------------------------------------------------------| 
|-----0--3bu---0--0-0--3bu----0--0-0--3bu-------0--0-0--3bu-----0--0---| 
|-----0--------0--0-0---------0--0-0------------0--0-0----------0--0---| 
|----------------------------------------------------------------------| 
off now             now                              now

                                              PM.
|----------------------------|-----------------------------------------| 
|----------------------------|-----------------------------------------| 
|----------------------------|------------------------3----3-3-3--3--3-| 
|----------------------------|----5-----------5-5--5--3----3-3-3--3--3-| 
|-0--3-3-3-3-3--0-3-0-3-3-3--|----5-----------5-5--5--1----1-1-1--1--1-| 
|----------------------------|----3-----------3-3--3-------------------|
                              She summons all   the  desperates  with a


|----------------------------------------------------------------------| 
|----------------------------------------------------------------------| 
|-----------------------------------------3----X-X-X-X--3-3------------| 
|-3-----3--3-3----5-----X---X-X-X-X--5-5--3----X-X-X-X--3-3---3--------| 
|-3-----3--3-3----5-----X---X-X-X-X--5-5--1----X-X-X-X--1-1---3--------| 
|-1-----1--1-1----3-----X---X-X-X-X--3-3----------------------1--------| 
 boom   done at  last  she     hears the  silence      in her room


|----------------------------------------------------------------------| 
|----------------------------------------------------------------------| 
|---------------------------------------------3-3-3-3-3-3-3-3-3--------| 
|-3--3---3--1----1-1--1-------5---5-5--5-5----3-3-3-3-3-3-3-3-3--------| 
|-3--3---3--1----1-1--1-------5---5-5--5-5----1-1-1-1-1-1-1-1-1--------| 
|-1--1---1--------------------3---3-3--3-3-----------------------------| 
  echoing   huge silence  Her buried   self   calling her own name

CHORUS III

|----------------------------------------------------------------------| 
|----------------------------------------------------------------------| 
|-5-5-5-5-5-5-5-5---5-5-5-5-5-5-5-5---5-5-5-5-5-5-5-5---5-5-5-5-5-5-5-5| 
|-5-5-5-5-5-5-5-5---5-5-5-5-5-5-5-5---5-5-5-5-5-5-5-5---5-5-5-5-5-5-5-5| 
|-3-3-3-3-3-3-3-3---2-2-2-2-2-2-2-2------------------------------------| 
|-------------------------------------6-6-6-6-6-6-6-6---5-5-5-5-5-5-5-5| 
  She    is         heaven  sheïs my  haven  my  es-   cape    she goes

|-------------------| 
|-------------------| 
|-------------------| 
|-6-6-6-6-6-6-6-6---| 
|-6-6-6-6-6-6-6-6---| 
|-4-4-4-4-4-4-4-4---| 
  all the way

|----------------------------------------------------------------------| 
|----------------------------------------------------------------------| 
|-5-5-5-5-5-5-5-5---5-5-5-5-5-5-5-5---5-5-5-5-5-5-5-5---5-5-5-5-5-5-5-5| 
|-5-5-5-5-5-5-5-5---5-5-5-5-5-5-5-5---5-5-5-5-5-5-5-5---5-5-5-5-5-5-5-5| 
|-3-3-3-3-3-3-3-3---2-2-2-2-2-2-2-2------------------------------------| 
|-------------------------------------6-6-6-6-6-6-6-6---5-5-5-5-5-5-5-5| 
  the violent the  gentle come to     drain her of her  name  furnished

|----------------------------------| 
|----------------------------------| 
|----------------------------------| 
|-6-6-6-6-6-6-6-6-6-6-6-6-6-6-6-6--|  
|-6-6-6-6-6-6-6-6-6-6-6-6-6-6-6-6--|
|-4-4-4-4-4-4-4-4-4-4-4-4-4-4-4-4--|  
  souls for rent


|----------------------------------------------------------------------| 
|----------------------------------------------------------------------| 
|-5-5-5-5-5-5-5-5---5-5-5-5-5-5-5-5---5-5-5-5-5-5-5-5---5-5-5-5-5-5-5-5| 
|-5-5-5-5-5-5-5-5---5-5-5-5-5-5-5-5---5-5-5-5-5-5-5-5---5-5-5-5-5-5-5-5| 
|-3-3-3-3-3-3-3-3---2-2-2-2-2-2-2-2------------------------------------| 
|-------------------------------------6-6-6-6-6-6-6-6---5-5-5-5-5-5-5-5| 
  her body of       pillars were      broke  and   re- placed  she goes

|-------------------| 
|-------------------| 
|-------------------| 
|-6-6-6-6-6-6-6-6---| 
|-6-6-6-6-6-6-6-6---| 
|-4-4-4-4-4-4-4-4---| 
  all the way

|----------------------------------------------------------------------| 
|----------------------------------------------------------------------| 
|-5-5-5-5-5-5-5-5---5-5-5-5-5-5-5-5---5-5-5-5-5-5-5-5---5-5-5-5-5-5-5-5| 
|-5-5-5-5-5-5-5-5---5-5-5-5-5-5-5-5---5-5-5-5-5-5-5-5---5-5-5-5-5-5-5-5| 
|-3-3-3-3-3-3-3-3---2-2-2-2-2-2-2-2------------------------------------| 
|-------------------------------------6-6-6-6-6-6-6-6---5-5-5-5-5-5-5-5| 
 when the mourning  come she wakes    up to live        as  one   al-    

|----------------------------------| 
|----------------------------------| 
|----------------------------------| 
|-6-6-6-6-6-6-6-6-6-6-6-6-6-6-6-6--|  
|-6-6-6-6-6-6-6-6-6-6-6-6-6-6-6-6--|
|-4-4-4-4-4-4-4-4-4-4-4-4-4-4-4-4--|  
 -ready dead

(same pattern for these verses)

 I need her I need her I need her I need her sheïs all the way
 I need her I need her I need her I need her sheïs all the way
 Sheïs all the way   Sheïs all the way   she goes all the way

|----------------------------------------------------------------------| 
|----------------------------------------------------------------------| 
|-5-5-5-5-5-5-5-5---5-5-5-5-5-5-5-5---5-5-5-5-5-5-5-5---5-5-5-5-5-5-5-5| 
|-5-5-5-5-5-5-5-5---5-5-5-5-5-5-5-5---5-5-5-5-5-5-5-5---5-5-5-5-5-5-5-5| 
|-3-3-3-3-3-3-3-3---2-2-2-2-2-2-2-2------------------------------------| 
|-------------------------------------6-6-6-6-6-6-6-6---5-5-5-5-5-5-5-5| 
   She goes         all the way              she goes   all  the   way

                                           ...................... pickslide
|----------------------------------------------------------------------|down
|----------------------------------------------(feedback-noise)--------| 
|------------------------------------------5------------------------\--| 
|-5-5---5--5-5----5--5-5----5--5-5----5--5-5------------------------\--|  
|-5-5---5--5-5----5--5-5----5--5-5----5--5-3------------------------\--|
|-4-4---4--4-4----4--4-4----4--4-4----4--4-----------------------------|  
 yeah



*************************** END (enjoy it!)***********************

        Thatïs all. Sorry I couldnït transcribe the solo but it was to
hard for me. Anyway I hope this could be of any use for you. If you find
anything wrong or you want to make corrections feel free to do it. For
questions, suggestion or whatever you want to tell me, send an email to
   asc12@alu.um.es   or   nunozowie@mixmail.com
        Feel free as well to use it on your web page or to send it to OLGA,
    share it with your pals, do what you want with it.

        Things Iïve used for the transcription:
       -Transcribe! 2.00 (Unregistered version). It slowsdown Wavs. Get it at
                    www.harmony-central.com
                    www.seventhstring.demon.co.uk
       -Winamp
       -My shitty Samick Artists Series

        And again, if youïre wondering whatïs this symbol -> Sheïs (the one
before the "s") it is supposed to be an apostrophe.


************************************************************************
******************************S Y M B O L S*****************************
************************************************************************

h  ======>hammer on
p  ======>pull off
b  ======>bend  1=one step(two frets) ==>bu(bend up) bd(bend down)
A.H. ====>Artificial harmonics
P.M. ====>Palm Mute
/ and \ =>slide  
+  ======>fret board tapping
X  ======>Muted strings
~~~  ===>vibrato
w\bar  =>whammy bar
************************************************************************
          


Comments