Mourning Beloveth - All Hope Is Pleading Chords & Tabs

 

All Hope Is Pleading Chords & Tabs

Mourning Beloveth Chords & Tabs

Version: 1 Type: Tab 0 ratings
1 star 2 stars 3 stars 4 stars 5 stars
comments

All Hope Is Pleading Tab

   

                       M O U R N I N G   B E L O V E T H

                                       -

                    A L L   H O P E   I S   P L E A D I N G



                                      DUST
                           (c) Sentinel Records - 2000



                              Tune Down 1 & 1/2 Steps
                                  C# F# B E G# C#

                                 Tempo = 128 BPM
                               Time Signature = 6/4



                          -----------------------------
                                 Transcribed by

                                 PADDY MCMULLAN
                           stinkypoohpants@yahoo.co.uk

                                   Version 1.0
                             -----------------------

                             Tablature Symbols Used:


 P.M...    -  Palm Mute
 p         -  Pull-Off
 h         -  Hammer-On
 S.H       -  Semi-Harmonic
 (/)       -  Legato Slide (Blank space indicates length of slide)
 \         -  Slide Down to/Down From (Blank space indicates length of slide)
 /         -  Slide Up To/Up From (Blank space indicates length of slide)
 ( )       -  Ghost Note/Tied Note/Implied Note
 REST      -  Rest and sustain rest for duration of blank space



================================================================================
Riff 1a: Guitar 1 with heavy distortion (Play 4 times)
================================================================================


||-----------------------------------|--------------------------------------|
||-----------------------------------|--------------------------------------|
||-----------------------------------|--------------------------------------|
||-----------9--7--9------10--9h 10--|---------------(7/10)---9h10p9--------|
||--7\      -------------------------|--7\          ------------------10----|
||-----------------------------------|--------------------------------------|


|-----------------------------------|--------------------------------------|
|-----------------------------------|--------------------------------------|
|-----------------------------------|--------------------------------------|
|--12------------12--10----9h   10--|--10--------7--9--(9/10)-----9--7h 9--|
|-----------------------------------|--------------------------------------|
|-----------------------------------|--------------------------------------|


|-----------------------------------|----------------------------------|
|-----------------------------------|----------------------------------|
|-----------------------------------|----------------------------------|
|-----------9--7--9------10--9h 10--|----------------------------------|
|--7\      -------------------------|--7\          -(5/7)---9----10----|
|-----------------------------------|----------------------------------|


|----------------------------------|------------------------------------| |
|----------------------------------|------------------------------------| |
|----------------------------------|------------------------------------|*|
|----------------------------------|------------------10------9---------|*|
|--10------------10----12----10----|--9--------9--10-------------10--9--| |
|----------------------------------|------------------------------------| |



Replace the very last bar (after the repititions) with the following:


                                        S.H
       |-------------------------------------||
       |---------------------------------*---||
       |----------------------------------||
       |------------------10------9--9-------||
       |--9--------9--10---------------------||
       |-------------------------------------||



================================================================================
Riff 1b: Guitar 2 with heavy distortion (Play once through)
================================================================================


||------------------------------|------------------------------|
||----------------R             |----------------R             |
||----------------E             |----------------E             |
||--(9\       2)--S             |--(9\       2)--S             |
||--(7\       2)--T             |--(7\       2)--T             |
||--(7\       0)----------------|--(7\       0)----------------|


|-------------------|-----------------------|-------------------------|
|-------------------|-----------------------|----------------R        |
|-------------------|--5--------------------|----------------E        |
|--5----------------|--5--------------------|--(9\       2)--S        |
|--5----------------|--3-----------------2/ |--(7\       2)--T        |
|--3----------------|-----------------------|--(7\       0)-----------|


|------------------------------|-------------------|
|----------------R             |-------------------|
|----------------E             |-------------------|
|--(9\       2)--S             |--5----------------|
|--(7\       2)--T             |--5----------------|
|--(7\       0)----------------|--3----------------|


|---------------------------------||
|---------------------------------||
|--4------------------------------||
|--4------------------------------||
|--2--------0--2--3------2--0--2--||
|---------------------------------||



================================================================================
Guitar 1 plays Riff 1a 3 times while guitar 2 plays Riff 2
================================================================================


================================================================================
Riff 2: Guitar 2 (Play 3 times)
================================================================================


||---------------------------------|--------------------------------|
||---------------------------------|--------------------------------|
||---------------------------------|--------------------------------|
||--9\      -----------------------|--9\          ------------------|
||--7\      -2--0--2------3--2--3--|--7\          -3----2h3p2-------|
||--7\      -----------------------|--7\          -------------3----|

                                                                  
|-------------------------------|---------------------------------|
|-------------------------------|---------------------------------|
|-------------------------------|---------------------------------|
|-------------------------------|---------------------------------|
|--5------------5--3----2----3--|--3--------0--2--3------2--0--2--|
|-------------------------------|---------------------------------|
                                            P.M..

|---------------------------------|------------------------------|
|---------------------------------|------------------------------|
|---------------------------------|------------------------------|
|--9\      -----------------------|--9\          ----------------|
|--7\      -2--0--2------3--2--3--|--7\          -2----4----5----|
|--7\      -----------------------|--7\          -0----2----3----|


|--------------------------------|---------------------------------| |
|--------------------------------|---------------------------------| |
|--------------------------------|---------------------------------|*|
|--------------------------------|---------------------------------|*|
|--5------------5---(5/7)---5----|--4--------------3------2--------| |
|--3------------3---(3/5)---3----|--2--------2--3------------3--2--| |



================================================================================
Riff 3a: Guitar 1 (Play once through)
================================================================================


Bar 1                            Bar 2
||-------------------------------|-------------------------------------|
||-------------------------------|-------------------------------------|
||-------------------------------|-------------------------------------|
||---------------5-------(5)p 0--|--(5/ 7)----------(5/7)---9----10----|
||--7----------------------------|-------------------------------------|
||-------------------------------|-------------------------------------|

Bar 3                                    Bar 4
|----------------------------------------|-------------------------------|
|----------------------------------------|-------------------------------|
|----------------------------------------|-------------------------------|
|--(9/10)   \  -7--5--7------7--(7/ 10)--|-------------------------------|
|----------------------------------------|------------------7------------|
|----------------------------------------|--8------8--8--8---------------|

Bar 5                                  Bar 6
|--------------------------------------|----------------------------------|
|--------------------------------------|----------------------------------|
|--------------------------------------|----------------------------------|
|--7--------(7)\  -5------10---9h10p9--|--7------------(5/7)---9----10----|
|--------------------------------------|----------------------------------|
|--------------------------------------|----------------------------------|

Bar 7                                    Bar 8
|----------------------------------------|-------------------------------|
|----------------------------------------|-------------------------------|
|----------------------------------------|-------------------------------|
|--(9/10)-------7p 5--7------7--(7/ 10)--|-------------------------------|
|----------------------------------------|------------------7------------|
|----------------------------------------|--8------8--8--8---------------|

Bar 9                             Bar 10
|---------------------------------|---------------------------------------|
|---------------------------------|---------------------------------------|
|---------------------------------|---------------------------------------|
|-/7     p    0--5--------(5)p 0--|--(5/ 7)----------(5/7)---5h7 5--------|
|---------------------------------|----------------------------------7----|
|---------------------------------|---------------------------------------|

Bar 11                            Bar 12
|---------------------------------|-------------------------------|
|---------------------------------|-------------------------------|
|---------------------------------|-------------------------------|
|---------------------------------|-------------------------------|
|--8------------------8--(8/ 10)--|------------------7------------|
|---------------------------------|--8------8--8--8---------------|

Bar 13                            Bar 14
|---------------------------------|---------------------------------------|
|---------------------------------|---------------------------------------|
|---------------------------------|---------------------------------------|
|-/7     p    0--5--------(5)p 0--|--(5/ 7)----------(5/7)---5h7 5--------|
|---------------------------------|----------------------------------7----|
|---------------------------------|---------------------------------------|

Bar 15                          Bar 16
|-------------------------------|-------------------------------|
|-------------------------------|-------------------------------|
|-------------------------------|-------------------------------|
|-------------------------------|-------------------------------|
|--8------------------8--8h 10--|------------------7------------|
|-------------------------------|--8------8--8--8---------------|

Bar 17                                  Bar 18
|---------------------------------------|-----------------------------------|
|---------------------------------------|-----------------------------------|
|---------------------------------------|-----------------------------------|
|--7----------(7/10)-10--9----7--9--10--|--7    p     0--(5/7)---9----10----|
|---------------------------------------|-----------------------------------|
|---------------------------------------|-----------------------------------|

Bar 19                                   Bar 20
|----------------------------------------|-------------------------------|
|----------------------------------------|-------------------------------|
|----------------------------------------|-------------------------------|
|--(9/10)-------7p 5--7------7--(7/ 10)--|-------------------------------|
|----------------------------------------|------------------7------------|
|----------------------------------------|--8------8--8--8---------------|

Bar 21                               Bar 22
|------------------------------------|-----------------------------------|
|------------------------------------|-----------------------------------|
|------------------------------------|-----------------------------------|
|--7--------7\  -5------10---9h10p9--|--7    p     0--(5/7)---9----10----|
|------------------------------------|-----------------------------------|
|------------------------------------|-----------------------------------|

Bar 23                                   Bar 24
|----------------------------------------|----------------------------||
|----------------------------------------|----------------------------||
|----------------------------------------|----------------------------||
|--(9/10)-------7p 5--7------7--(7/ 10)--|----------------------------||
|----------------------------------------|---------------7------------||
|----------------------------------------|--8-------------------------||



================================================================================
Riff 3b: Guitar 2 (Play 6 times)
================================================================================


||----------------------------|------------------------------|
||----------------------------|------------------------------|
||----------------------------|------------------------------|
||----------------------------|------------------------------|
||--7------------5------------|--7------------7----7----7----|
||--5------------3------------|--5------------5----5----5----|


|------------------------------|----------------------------| |
|------------------------------|----------------------------| |
|------------------------------|----------------------------|*|
|------------------------------|--5-------------------------|*|
|--3--------------3------------|--3------------2------------| |
|--1--------1--1--1------------|---------------0------------| |
            ....


================================================================================
Riff 4a: Guitar 1 (Play 2 times) [Time Signature = 4/4]
================================================================================


||--------------------|-------------------|--------------------|
||--------------------|-------------------|--------------------|
||--------------------|-------------------|-----------0--------|
||-----------2--------|--2----------------|--5--------5--------|
||--2--------2--------|--2----------------|--x-----------------|
||--0--------0--------|--0----------------|--3-------(3)-------|


|--------------------|----------------------|---------------------------|
|--------------------|----------------------|---------------------------|
|--------------------|----------------------|---------------------------|
|--9--------9--------|----------------------|---------------------------|
|--x--------x--------|------------7---------|---------------------------|
|--7--------7--------|--0----0---------7----|--(7/ 8)--7--5--7----5h 7--|


|-----------------------------|---------------------|--------------------|
|-----------------------------|---------------------|--------------------|
|-----------------------------|---------------------|--------------------|
|-----------------------------|---------------------|--------------------|
|-------10----(10/12)-----10--|--9~~----------------|--2--------2--------|
|--8--------------------------|---------------10\ --|--0--------0--------|


|-------------------|--------------------|--------------------|
|-------------------|--------------------|--------------------|
|-------------------|--------------------|--------------------|
|--2----------------|--5--------5--------|--9-----------------|
|--2----------------|--x--------x--------|--x--------9--------|
|--0----------------|--3--------3--------|--7-----------------|


|----------------------|---------------------------|
|----------------------|---------------------------|
|----------------------|---------------------------|
|----------------------|---------------------------|
|------------7---------|---------------------------|
|--0----0---------7----|--(7/ 8)--7--5--7----5h-7--|

               
|-----------------------------|-------------------| |
|-----------------------------|-------------------| |
|-----------------------------|-------------------|*|
|-----------------------------|-------------------|*|
|-------10----(10/12)-----10--|--9~~--------------| |
|--8--------------------------|-------------------| |



================================================================================
Riff 4b: Guitar 2 (Play 2 times)
================================================================================


||--------------------|-------------------|-----------------------|
||--------------------|-------------------|-----------------------|
||--------------------|-------------------|-----------------------|
||--------------------|-------------------|-----------------------|
||--2--------2--------|--7----------------|--9h 10  9--------7----|
||--0--------0--------|-------------------|-----------------------|


|-------------------------|-------------------|------------------|
|-------------------------|-------------------|------------------|
|-------------------------|-------------------|------------------|
|-------------------------|--2----------------|--(2)-------------|
|--(7/ 10)------12--------|--2----------------|--(2)-------------|
|-------------------------|--0----------------|--(0)-------------|


|-------------------|-------------------|--------------------|
|-------------------|-------------------|--------------------|
|-------------------|--4----------------|--------------------|
|--5----------------|--4----------------|--------------------|
|--5----------------|--2----------------|--2--------2--------|
|--3----------------|-------------------|--0--------0--------|


|-------------------|-----------------------|------------------------|
|-------------------|-----------------------|------------------------|
|-------------------|-----------------------|------------------------|
|-------------------|-----------------------|------------------------|
|--7----------------|--9h 10  9--------7----|--(7/ 10)------9--------|
|-------------------|-----------------------|------------------------|


-------------------|------------------|-------------------|
-------------------|------------------|-------------------|
-------------------|------------------|-------------------|
--2----------------|--(2)-------------|--5----------------|
--2----------------|--(2)-------------|--5----------------|
--0----------------|--(0)-------------|--3----------------|


|-------------------| |
|-------------------| |
|--4----------------|*|
|--4----------------|*|
|--2----------------| |
|-------------------| |


================================================================================
Riff 5a: Guitar 1 (Play 2 times) [Time Signature = 6/4] [Tempo = 90 BPM]
================================================================================


||-------------------------------------------------------------------------|
||-------------------------------------------------------------------------|
||-------------------------------------------------------------------------|
||--12--12-12-12-12-12-12--12-12-9-9-9-9--10-10-10-10-10-10--10-10-10-10-7-|
||--0---0--0--0--0--0--0---0--0--0-0-0-0--0--0--0--0--0--0---0--0--0--0--0-|
||-------------------------------------------------------------------------|
        ..............     ...........    ..............     ..............

|--------------------------------------------------------------|
|--------------------------------------------------------------|
|--------------------------------------------------------------|
|--7-9-9-9-9-9-5-5-7-7-7-7-7-2-2-2-2-2-3-3-3-3-5-5-5-5-5-5-5-5-|
|--0-0-0-0-0-0-0-0-0-0-0-0-0-0-2-2-2-2-3-3-3-3-5-5-5-5-5-5-5-5-|
|--------------------------------------------------------------|
  ............................................................

|---------------------------------------------------|
|---------------------------------------------------|
|---------------------------------------------------|
|--3------------3--3---------3------------3-2--2--2-|
|--3--3-3-3-3-3-3--3-3-3-3-3-3--3-3-3-3-3-3-2--2--2-|
|--1--1-1-1-1-1-1--1-1-1-1-1-1--1-1-1-1-1-1-0--0--0-|
      .........    .........    .........

|-------------------------------------------------| |
|-------------------------------------------------| |
|-------------------------------------------------|*|
|--3------------3--3---------3---3-----5--5-5-----|*|
|--3--3-3-3-3-3-3--3-3-3-3-3-3---3-----5--5-5-----| |
|--1--1-1-1-1-1-1--1-1-1-1-1-1---1-0-0-3--3-3-3-3-| |
      .........    .........       ...        ...



================================================================================
Riff 5b: Guitar 2 (Play 10 times)
================================================================================


||------------------|-------------------------------|
||--R             --|--R         -------------------|
||--E             --|--E         -------------------|
||--S             --|--S         --2---3---5---5--2-|
||--T             --|--T         --2---3---5---5--2-|
||------------------|--------------0---1---3---3--0-|


|---------------------------------------------------|
|---------------------------------------------------|
|---------------------------------------------------|
|--3------------3--3---------3------------3-2--2--2-|
|--3--3-3-3-3-3-3--3-3-3-3-3-3--3-3-3-3-3-3-2--2--2-|
|--1--1-1-1-1-1-1--1-1-1-1-1-1--1-1-1-1-1-1-0--0--0-|
      .........    .........    .........

|-------------------------------------------------| |
|-------------------------------------------------| |
|-------------------------------------------------|*|
|--3------------3--3---------3---3-----5--5-5-----|*|
|--3--3-3-3-3-3-3--3-3-3-3-3-3---3-----5--5-5-----| |
|--1--1-1-1-1-1-1--1-1-1-1-1-1---1-0-0-3--3-3-3-3-| |
      .........    .........       ...        ...



NOTE: This riff is identicle to riff 5a, except the first two bars are played
as shown in riff 5b.  All subsequent repeats are to be played as riff 5a.



================================================================================
Riff 5c: Guitar 2 (Play once through)
================================================================================


*This riff begins after riff 5a finishes, and during riff 5b*

Bar 1
||---------------------------------------|
||---------------------------------------|
||--7---------7h9p7----------------------|
||------------------(9/ 10)--------(10)\-|
||---------------------------------------|
||---------------------------------------|

Bar 2                                  Bar 3
|--------------------------------------|-------------------------------|
|--------------------------------------|-------------------------------|
|--------------------------------------|-------------------------------|
|--7h 9----5h 7------------------------|----------------3------2-------|
|------------------7---8---10---10-8-7-|---------3-----------------3---|
|--------------------------------------|--1----------------------------|

Bar 4
|----------------------------------------|
|----------------------------------------|
|----------------------------------------|
|--7--------------10-10-10-10-10--9------|
|------------------------------------10--|
|----------------------------------------|

Bar 5                                   Bar 6
|---------------------------------------|--------------------------------------|
|---------------------------------------|--------------------------------------|
|--7---------7h9p7----------------------|--------------------------------------|
|------------------(9/ 10)--------(10)\-|--7h 9----5h 7------------------------|
|---------------------------------------|------------------7---8---10---10-8-7-|
|---------------------------------------|--------------------------------------|

Bar 7                           Bar 8
|-------------------------------|---------------------------------------|
|-------------------------------|---------------------------------------|
|-------------------------------|---------------------------------------|
|----------------3------2-------|--7--------------10-10-10-10-10--9--7--|
|---------3-----------------3---|---------------------------------------|
|--1----------------------------|---------------------------------------|
[ Tab from: http://www.guitartabs.cc/tabs/m/mourning_beloveth/all_hope_is_pleading_tab.html ]
Bar 9                           Bar 10
|-------------------------------|-------------------------------------|
|-------------------------------|-------------------------------------|
|-------------------------------|-------------------------------------|
|--9--------7--9---10-----------|--9--------7--9---10---12--9----10-9-|
|-------------------------------|-------------------------------------|
|-------------------------------|-------------------------------------|

Bar 11
|-----------------------------------------|
|-----------------------------------------|
|-------------------7-5-7-------------9-9-|
|--10------------------------7-5-7--------|
|--------10-9-10--------------------------|
|-----------------------------------------|

Bar 12
|---------------------------------------------|
|---------------------------------------------|
|--9--10--9-----------------------------------|
|------------10--------10-10-12-10-9--9-9-9-7-|
|---------------------------------------------|
|---------------------------------------------|

Bar 13                          Bar 14
|-------------------------------|-------------------------------------|
|-------------------------------|-------------------------------------|
|-------------------------------|--------------------------------10-9-|
|--9--------7--9---10-----------|--9--------7--9---10---12--9---------|
|-------------------------------|-------------------------------------|
|-------------------------------|-------------------------------------|

Bar 15
|-------------------------------------------|
|-------------------8-6-8-------------10-10-|
|--10------------------------7-5-7----------|
|--------10-9-10----------------------------|
|-------------------------------------------|
|-------------------------------------------|

Bar 16
|-----------------------------------------------|
|--10--11--10-----------------------------------|
|--------------10--------10-10-12-10-9--9-9-9-7-|
|-----------------------------------------------|
|-----------------------------------------------|
|-----------------------------------------------|

Bar 17                          Bar 18
|-------------------------------|-------------------------------------|
|-------------------------------|-------------------------------------|
|-------------------------------|-------------------------------------|
|--9--------7--9---10-----------|--9--------7--9---10---12--9----10-9-|
|-------------------------------|-------------------------------------|
|-------------------------------|-------------------------------------|

Bar 19
|-----------------------------------------|
|-----------------------------------------|
|-------------------7-5-7-------------9-9-|
|--10------------------------7-5-7--------|
|--------10-9-10--------------------------|
|-----------------------------------------|

Bar 20
|---------------------------------------------|
|---------------------------------------------|
|--9--10--9-----------------------------------|
|------------10--------10-10-12-10-9--9-9-9-7-|
|---------------------------------------------|
|---------------------------------------------|

Bar 21                                  Bar 22
|---------------------------------------|--------------------------------------|
|---------------------------------------|--------------------------------------|
|--7---------7h9p7----------------------|--------------------------------------|
|------------------(9/ 10)--------(10)\-|--7h 9----5h 7------------------------|
|---------------------------------------|------------------7---8---10---10-8-7-|
|---------------------------------------|--------------------------------------|

Bar 23                          Bar 24
|-------------------------------|---------------------------------||
|-------------------------------|---------------------------------||
|-------------------------------|---------------------------------||
|----------------3------2-------|--7--------------7-7-7-7-5--5----||
|---------3-----------------3---|---------------------------------||
|--1----------------------------|---------------------------------||



================================================================================
Riff 6a: Guitar 1 (Play 4 times) [Time Signature = 8/4] [Tempo = 128 BPM]
================================================================================


||-----------------------------------------|
||-----------------------------------------|
||-----------------------------------------|
||--2--------2----2--2------5----5--4------|
||--2--------2----2--2---------------------|
||--0--------0----0--0---------------------|
                 ...

|---------------------------------------------|
|---------------------------------------------|
|--5--------5----5--5----7--7--4--4--5--5--0--|
|--5--------5----5--5-------------------------|
|--3--------3----3--3-------------------------|
|---------------------------------------------|
                ...

|-----------------------------------------|
|-----------------------------------------|
|-----------------------------------------|
|--2--------2----2--2------5----5--4------|
|--2--------2----2--2---------------------|
|--0--------0----0--0---------------------|
                ...

|---------------------------------------------| |
|---------------------------------------------| |
|---------------------------------------------|*|
|--5--------5----5--5----7--7--4--4--5--5--0--|*|
|--5--------5----5--5-------------------------| |
|--3--------3----3--3-------------------------| |
                ...



================================================================================
Riff 6b: Guitar 2 (Play 4 times)
================================================================================


||-----------------------------------------|
||-----------------------------------------|
||-----------------------------------------|
||--2--------2----2--2------5----5--4------|
||--2--------2----2--2---------------------|
||--0--------0----0--0---------------------|
            ...

|---------------------------------------------|
|---------------------------------------------|
|--5--------5----5--5-------------------------|
|--5--------5----5--5-------------------------|
|--3--------3----3--3----5--5--2--2--3--3--2--|
|---------------------------------------------|
                ...

|-----------------------------------------|
|-----------------------------------------|
|-----------------------------------------|
|--2--------2----2--2---------------------|
|--2--------2----2--2------5----5--4------|
|--0--------0----0--0------3----3--2------|
                ...

|------------------------------------------| |
|------------------------------------------| |
|------------------------------------------|*|
|------------------------------------------|*|
|--5------------------5--5--2--2--3--3--2--| |
|--3------------------3--3--0--0--1--1--0--| |
                      ...................



================================================================================
Guitars 1 and 2 play riffs 4a and 4b respectively, 1 and 1/2 times
================================================================================


================================================================================
Riff 7a: Guitar 1 (Play once through) [Tempo = 60 BPM]
================================================================================


Bar 1                   Bar 2                  Bar 3
||----------------------|----------------------|------------------------|
||----------------------|----------------------|------------------------|
||----------------------|----------------------|------------------------|
||----------------------|----------------------|------------------------|
||--7--------10----9----|--7--------10----9----|--10----------12----14--|
||----------------------|----------------------|------------------------|

Bar 4                    Bar 5                     Bar 6
|------------------------|-------------------------|----------------------|
|------------------------|-------------------------|----------------------|
|------------------------|-------------------------|----------------------|
|------------------------|-------------------------|----------------------|
|--12--------14----12----|--14----------10--9--10--|--7--------10----9----|
|------------------------|-------------------------|----------------------|

Bar 7                    Bar 8
|------------------------|------------------------|
|------------------------|------------------------|
|------------------------|------------------------|
|------------------------|------------------------|
|--10----------12----14--|--12--------14----12----|
|------------------------|------------------------|

Bar 9                     Bar 10                 Bar 11
|-------------------------|----------------------|------------------------|
|-------------------------|----------------------|------------------------|
|-------------------------|----------------------|------------------------|
|-------------------------|----------------------|------------------------|
|--14----------10--9--10--|--7--------10----9----|--10----------12----14--|
|-------------------------|----------------------|------------------------|

Bar 12                  Bar 13                    Bar 14
|------------------------|-------------------------|----------------------|
|------------------------|-------------------------|----------------------|
|------------------------|-------------------------|----------------------|
|------------------------|-------------------------|----------------------|
|--12--------14----12----|--14----------10--9--10--|--7--------10----9----|
|------------------------|-------------------------|----------------------|

Bar 15                   Bar 16                 Bar 17
|------------------------|-----------------------|----------------------|
|------------------------|-----------------------|----------------------|
|------------------------|-----------------------|----------------------|
|------------------------|-----------------------|----------------------|
|--10----------12----14--|--12--------10----9----|--7--------10----9----|
|------------------------|-----------------------|----------------------|

Bar 18                 Bar 19                   Bar 20
|----------------------|------------------------|------------------------|
|----------------------|------------------------|------------------------|
|----------------------|------------------------|------------------------|
|----------------------|------------------------|------------------------|
|--7--------10----9----|--10----------12----14--|--12--------14----12----|
|----------------------|------------------------|------------------------|

Bar 21                    Bar 22                 Bar 23
|-------------------------|----------------------|------------------------|
|-------------------------|----------------------|------------------------|
|-------------------------|----------------------|------------------------|
|-------------------------|----------------------|------------------------|
|--14----------10--9--10--|--7--------10----9----|--10----------12----14--|
|-------------------------|----------------------|------------------------|

Bar 24                   Bar 25                    Bar 26
|------------------------|-------------------------|----------------------|
|------------------------|-------------------------|----------------------|
|------------------------|-------------------------|----------------------|
|------------------------|-------------------------|----------------------|
|--12--------14----12----|--14----------10--9--10--|--7--------10----9----|
|------------------------|-------------------------|----------------------|

Bar 27                   Bar 28                  Bar 29
|------------------------|-----------------------|----------------------|
|------------------------|-----------------------|----------------------|
|------------------------|-----------------------|----------------------|
|------------------------|-----------------------|----------------------|
|--10----------12----14--|--12--------10----9----|--7--------10----9----|
|------------------------|-----------------------|----------------------|

Bar 30                 Bar 31                   Bar 32
|----------------------|------------------------|------------------------|
|----------------------|------------------------|------------------------|
|----------------------|------------------------|------------------------|
|----------------------|------------------------|------------------------|
|--7--------10----9----|--10----------12----14--|--12--------14----12----|
|----------------------|------------------------|------------------------|

Bar 33
|--------------------||
|--------------------||
|--------------------||
|--------------------||
|--14----------------||
|--------------------||



================================================================================
Riff 7b: Guitar 2 (Play once through)
================================================================================


Bar 1                   Bar 2                  Bar 3
||----------------------|----------------------|------------------------|
||----------------------|----------------------|------------------------|
||----------------------|----------------------|------------------------|
||----------------------|----------------------|------------------------|
||--7--------10----9----|--7--------10----9----|--10----------12----14--|
||----------------------|----------------------|------------------------|

Bar 4                   Bar 5                    Bar 6
|-----------------------|------------------------|----------------------|
|-----------------------|------------------------|----------------------|
|-----------------------|------------------------|----------------------|
|-----------------------|------------------------|----------------------|
|--12--------10----9----|--7----------10--9--10--|--7--------10----9----|
|-----------------------|------------------------|----------------------|

Bar 7                    Bar 8                   Bar 9
|------------------------|-----------------------|------------------------|
|------------------------|-----------------------|------------------------|
|------------------------|-----------------------|------------------------|
|------------------------|-----------------------|------------------------|
|--10----------12----14--|--12--------10----9----|--7----------10--9--10--|
|------------------------|-----------------------|------------------------|

Bar 10                 Bar 11                   Bar 12
|----------------------|------------------------|-----------------------|
|----------------------|------------------------|-----------------------|
|----------------------|------------------------|-----------------------|
|----------------------|------------------------|-----------------------|
|--7--------10----9----|--10----------12----14--|--12--------10----9----|
|----------------------|------------------------|-----------------------|

Bar 13                   Bar 14                 Bar 15
|------------------------|----------------------|------------------------|
|------------------------|----------------------|------------------------|
|------------------------|----------------------|------------------------|
|------------------------|----------------------|------------------------|
|--7----------10--9--10--|--7--------10----9----|--10----------12----14--|
|------------------------|----------------------|------------------------|

Bat 16                  Bar 17                 Bar 18
|-----------------------|----------------------|----------------------|
|-----------------------|----------------------|----------------------|
|-----------------------|----------------------|----------------------|
|-----------------------|----------------------|----------------------|
|--12--------10----9----|--7--------10----9----|--7--------10----9----|
|-----------------------|----------------------|----------------------|

Bar 19                   Bar 20                  Bar 21
|------------------------|-----------------------|------------------------|
|------------------------|-----------------------|------------------------|
|------------------------|-----------------------|------------------------|
|------------------------|-----------------------|------------------------|
|--10----------12----14--|--12--------10----9----|--7----------10--9--10--|
|------------------------|-----------------------|------------------------|

Bar 22                 Bar 23                   Bar 24
|----------------------|------------------------|-----------------------|
|----------------------|------------------------|-----------------------|
|----------------------|------------------------|-----------------------|
|----------------------|------------------------|-----------------------|
|--7--------10----9----|--10----------12----14--|--12--------10----9----|
|----------------------|------------------------|-----------------------|

Bar 25                   Bar 26                 Bar 27
|------------------------|----------------------|------------------------|
|------------------------|----------------------|------------------------|
|------------------------|----------------------|------------------------|
|------------------------|----------------------|------------------------|
|--7----------10--9--10--|--7--------10----9----|--10----------12----14--|
|------------------------|----------------------|------------------------|

Bar 28                  Bar 29                 Bar 30
|-----------------------|----------------------|----------------------|
|-----------------------|----------------------|----------------------|
|-----------------------|----------------------|----------------------|
|-----------------------|----------------------|----------------------|
|--12--------10----9----|--7--------10----9----|--7--------10----9----|
|-----------------------|----------------------|----------------------|

Bar 31                   Bar 32                  Bar 33
|------------------------|-----------------------|-------------------||
|------------------------|-----------------------|-------------------||
|------------------------|-----------------------|-------------------||
|------------------------|-----------------------|-------------------||
|--10----------12----14--|--12--------10----9----|--7----------------||
|------------------------|-----------------------|-------------------||



================================================================================
Riff 7c (Lead): Guitar 3 with heavy distortion (Play once through)
================================================================================


Bar 1               Bar 2          Bar 3
||------------------|--------------|---------------------------|
||--R             --|--R         --|---------------------------|
||--E             --|--E         --|---------------------------|
||--S             --|--S         --|--5--7--9--10----9---7-7h9-|
||--T             --|--T         --|---------------------------|
||------------------|--------------|---------------------------|

Bar 4                 Bar 5               Bar 6
|---------------------|-------------------|------------------|
|---------------------|-------------------|------------------|
|---------------------|-------------------|------------------|
|--7--------5----4----|--2----------------|--(2)-------------|
|---------------------|-------------------|------------------|
|---------------------|-------------------|------------------|

Bar 7                       Bar 8
|---------------------------|---------------------|
|---------------------------|---------------------|
|---------------------------|---------------------|
|--5--7--9--10----9---7-7h9-|--7--------9----7----|
|---------------------------|---------------------|
|---------------------------|---------------------|

Bar 9                             Bar 10
|---------------------------------|------------------------|
|---------------------------------|------------------------|
|---------------------------------|------------------------|
|--9p7-9--7-9----9-10-9-----7--9--|--10------10--9----7----|
|--------------7--------10--------|------------------------|
|---------------------------------|------------------------|

Bar 11                           Bar 12
|--------------------------------|---------------------------|
|--------------------------------|---------------------------|
|--------------------------------|---------------------------|
|----9-----9----9-10-9-----7--9--|--10------10h12-9----10----|
|--7---7-7----7--------10--------|---------------------------|
|--------------------------------|---------------------------|

Bar 13                            Bar 14
|---------------------------------|-------------------------|
|---------------------------------|-------------------------|
|---------------------------------|-------------------------|
|--9p7-9----9----9-10-9-----7--9--|--10------12--9----10----|
|---------7----7--------10--------|-------------------------|
|---------------------------------|-------------------------|

Bar 15                          Bar 16
|-------------------------------|-----------------------|
|-------------------------------|-----------------------|
|-------------------------------|-----------------------|
|----9----9--7-9-10-9-----7--9--|--10--------9----10----|
|--7----7-------------10--------|-----------------------|
|-------------------------------|-----------------------|

Bar 17                          Bar 18
|-------------------------------|-----------------------|
|-------------------------------|-----------------------|
|-------------------------------|-----------------------|
|----9----9--7-9-10-9-7h9-7--9--|--10--------9----10----|
|--7----7-----------------------|-----------------------|
|-------------------------------|-----------------------|

Bar 19                          Bar 20
|-------------------------------|-------------------------|
|-------------------------------|-------------------------|
|-------------------------------|-------------------------|
|----9----9--7-9-10-9-----7--9--|--10------12--9----10----|
|--7----7-------------10--------|-------------------------|
|-------------------------------|-------------------------|

Bar 21                          Bar 22
|-------------------------------|-------------------------|
|-------------------------------|-------------------------|
|-------------------------------|-------------------------|
|----9----9--7-9-10-9-----7--9--|--10------12--9----10----|
|--7----7-------------10--------|-------------------------|
|-------------------------------|-------------------------|

Bar 23                          Bar 24
|-------------------------------|-------------------------|
|-------------------------------|-------------------------|
|-------------------------------|-------------------------|
|----9----9--7-9-10-9-----7--9--|--10------12--9----10----|
|--7----7-------------10--------|-------------------------|
|-------------------------------|-------------------------|

Bar 25                          Bar 26
|-------------------------------|-------------------------|
|-------------------------------|-------------------------|
|-------------------------------|-------------------------|
|----9----9--7-9-10-9-----7--9--|--10------12--9----10----|
|--7----7-------------10--------|-------------------------|
|-------------------------------|-------------------------|

Bar 27                          Bar 28
|-------------------------------|-------------------------|
|-------------------------------|-------------------------|
|-------------------------------|-------------------------|
|----9----9--7-9-10-9-----7--9--|--10------12--9----10----|
|--7----7-------------10--------|-------------------------|
|-------------------------------|-------------------------|

Bar 29                          Bar 30
|-------------------------------|-------------------------|
|-------------------------------|-------------------------|
|-------------------------------|-------------------------|
|----9----9--7-9-10-9-----7--9--|--10------12--9----10----|
|--7----7-------------10--------|-------------------------|
|-------------------------------|-------------------------|

Bar 31                          Bar 32
|-------------------------------|-------------------------|
|-------------------------------|-------------------------|
|-------------------------------|-------------------------|
|----9----9--7-9-10-9-----7--9--|--10------12--9----10----|
|--7----7-------------10--------|-------------------------|
|-------------------------------|-------------------------|

Bar 33
|-------------------||
|-------------------||
|-------------------||
|--9----------------||
|-------------------||
|-------------------||



================================================================================
End
================================================================================


Tab summary:        Riff 1a x 4 + Riff 1b x 1
                    Riff 1a + Riff 2 x 3
                    Riff 3a x 1 + Riff 3b x 6
                    Riff 4a + Riff 4b x 2
                    Riff 5a x 2 + Riff 5b x 10 + Riff 5c x 1
                    Riff 6a + Riff 6b x 4
                    Riff 4a + Riff 4b x 1 & 1/2
                    Riff 7a + Riff 7b + Riff 7c x 1

                    END
Comments