Mountain Goats - Peacocks Chords & Tabs

 

Peacocks Chords & Tabs

Mountain Goats Chords & Tabs

Version: 1 Type: Tab 0 ratings
1 star 2 stars 3 stars 4 stars 5 stars
comments

Peacocks Tab

this might be messed up. kurse you wordwrap.

intro
e---------------------------------------------------------------------------------------------------|
B------------1---1--------------1---1--------------1---1------------1---1---------------------------|
G---0---0----2---2-----0---0----2---2-----0---0----2---2---0---0----2---2---------------------------|
D---2---2--3---3---3---2---2--3---3---3---2---2--3---3-----2---2--3---3---2-3-2-0-3-2-0-3-2-0-3-2-0-|
A-3---3--------------3---3--------------3---3------------3---3--------------------------------------|
E---------------------------------------------------------------------------------------------------|

e------------------|
B------------------|
G---0---0---0---0--|
D---2---2---2---2--|
A-3---3---3---3----|
E------------------|

e-------------------------------------|
B-----------------------------1---1---|
G---0---0---1---1-----2---2---2---2---|
D---2---2---2---2-----2---2-3---3---3-|
A-3---3---2---2---2-0---0-------------|
E-------------------------------------|twice
I hear them squeal
I see them preen
Fans all spread out
Neat and clean

e-------------------------------------------------------------------------|
B------------1---1--------------1---1--------------1---1------------1---1-|
G---0---0----2---2-----0---0----2---2-----0---0----2---2---0---0----2---2-|
D---2---2--3---3---3---2---2--3---3---3---2---2--3---3-----2---2--3---3---|
A-3---3--------------3---3--------------3---3------------3---3------------|
E-------------------------------------------------------------------------|

e-------------------------------------|
B-----------------------------1---1---|
G---0---0---1---1-----2---2---2---2---|
D---2---2---2---2-----2---2-3---3---3-|
A-3---3---2---2---2-0---0-------------|
E-------------------------------------|twice
Grab hold of the morning
Head out to the porch
Feel the wind stopping
Feel the sun scorch

e---1---1------------------------------------|
B---3---3---0---0------1---1----1---1--------|
G-2---2-----0---0------0---0----2---2--------|
D---------0---0---0--2---2----3---3---3------|
A--------------------------------------------|
E--------------------------------------------|
I fear for my safety
You can see it in my eyes

e---1---1---------------------0-----0-----0---0-----0-----0-1-|
B---3---3---0---0------1---1----1-----1-----1---1-----1-------|
G-2---2-----0---0------0---0------0-----0---------0-----0-----|
D---------0---0---0--2---2----3-------------------------------|
A-------------------------------------------------------------|
E-------------------------------------------------------------|
In an hour or two
We will rise
[ Tab from: http://www.guitartabs.cc/tabs/m/mountain_goats/peacocks_tab.html ]
e---------------------------------------------------------------------------------------------------|
B------------1---1--------------1---1--------------1---1------------1---1---------------------------|
G---0---0----2---2-----0---0----2---2-----0---0----2---2---0---0----2---2---------------------------|
D---2---2--3---3---3---2---2--3---3---3---2---2--3---3-----2---2--3---3---2-3-2-0-3-2-0-3-2-0-3-2-0-|
A-3---3--------------3---3--------------3---3------------3---3--------------------------------------|
E---------------------------------------------------------------------------------------------------|

e------------------|
B------------------|
G---0---0---0---0--|
D---2---2---2---2--|
A-3---3---3---3----|
E------------------|

e-------------------------------------|
B-----------------------------1---1---|
G---0---0---1---1-----2---2---2---2---|
D---2---2---2---2-----2---2-3---3---3-|
A-3---3---2---2---2-0---0-------------|
E-------------------------------------|
Then a sharp breeze kicks up
I hug myself hard
How come there's peacocks
in the front yard?

e-------------------------------------------------------------------------|
B------------1---1--------------1---1--------------1---1------------1---1-|
G---0---0----2---2-----0---0----2---2-----0---0----2---2---0---0----2---2-|
D---2---2--3---3---3---2---2--3---3---3---2---2--3---3-----2---2--3---3---|
A-3---3--------------3---3--------------3---3------------3---3------------|
E-------------------------------------------------------------------------|

e-------------------------------------|
B-----------------------------1---1---|
G---0---0---1---1-----2---2---2---2---|
D---2---2---2---2-----2---2-3---3---3-|
A-3---3---2---2---2-0---0-------------|
E-------------------------------------|twice
Sun's all prickly
On my neck
When the helicopter passes
We both hit the deck

e---1---1------------------------------------|
B---3---3---0---0------1---1----1---1--------|
G-2---2-----0---0------0---0----2---2--------|
D---------0---0---0--2---2----3---3---3------|
A--------------------------------------------|
E--------------------------------------------|
Hands grasping and groping
Seizing opportunity

e---1---1---------------------0-----0-----0---0-----0-----0-1-|
B---3---3---0---0------1---1----1-----1-----1---1-----1-------|
G-2---2-----0---0------0---0------0-----0---------0-----0-----|
D---------0---0---0--2---2----3-------------------------------|
A-------------------------------------------------------------|
E-------------------------------------------------------------|
Right where it lies
The sky will fall
We will rise
e-------------------------------------------------------------------------|
B------------1---1--------------1---1--------------1---1------------1---1-|
G---0---0----2---2-----0---0----2---2-----0---0----2---2---0---0----2---2-|
D---2---2--3---3---3---2---2--3---3---3---2---2--3---3-----2---2--3---3---|
A-3---3--------------3---3--------------3---3------------3---3------------|
E-------------------------------------------------------------------------|

e---------------------------------------------------------------------------------------------------0-|
B------------1---1--------------1---1--------------1---1------------1---1---------------------------1-|
G---0---0----2---2-----0---0----2---2-----0---0----2---2---0---0----2---2---------------------------0-|
D---2---2--3---3---3---2---2--3---3---3---2---2--3---3-----2---2--3---3---2-3-2-0-3-2-0-3-2-0-3-2-0-2-|
A-3---3--------------3---3--------------3---3------------3---3--------------------------------------3-|
E-----------------------------------------------------------------------------------------------------|
Comments