Mountain - Taunta Chords & Tabs

 

Taunta Chords & Tabs

Mountain Chords & Tabs

Version: 1 Type: Tab 0 ratings
1 star 2 stars 3 stars 4 stars 5 stars
comments

Taunta Tab

   
-------------------------------------------------------------------

    MOUNTAIN - TAUNTA (Pappalardi) From NANTUCKET SLEIGHRIDE album.
               Released on 6th February 1971.

-------------------------------------------------------------------

    Tabbed by:PJVillanueva



                                     
                                          G
e|------- ------- ------- -------|------- ------- ------- 3------|
B|-------------------------------|----------------3--------------|
G|-------------------------------|--------0----------------------|
D|-------------------------------|-------------------------------|
A|-------------------------------|-------------------------------|
E|-------------------------------|-------------------------------|




  Cm                              G
e|3------ ------- ------- 3------|3------ ------- 3------ -------|
B|4-----------------------4------|3---------------3--------------|
G|5-----------------------5------|4---------------4--------------|
D|5-----------------------5------|5---------------5--------------|
A|-------------------------------|-------------------------------|
E|-------------------------------|-------------------------------|

e|------- ------- ------- -------|------- ------- ------- -------|
B|-------------------------------|-------------------------------|
G|-------------------------------|3------------------------------|
D|-------------------------------|-------------------------------|
A|-------------------------------|-------------------------------|
E|-------------------------------|-------------------------------|

e|11----- ------- ------- -------|15----- ------- ------- -------|
B|-------------------------------|-------------------------------|
G|-------------------------------|-------------------------------|
D|-------------------------------|-------------------------------|
A|-------------------------------|-------------------------------|
E|-------------------------------|-------------------------------|




  Fsus2                           Fm
e|3------ ------- ------- -------|------- ------- ------- -------|
B|1-----------------------1------|1---------------3--------------|
G|0------------------------------|1------------------------------|
D|3---------------3--------------|3------------------------------|
A|-------------------------------|-------------------------------|
E|-------------------------------|-------------------------------|
  
e|------- ------- ------- -------|------- ------- ------- -------|
B|-------------------------------|-------------------------------|
G|1------------------------------|-------------------------------|
D|-------------------------------|-------------------------------|
A|-------------------------------|-------------------------------|
E|-------------------------------|-------------------------------|

e|------- ------- ------- -------|------- ------- ------- -------|
B|13-----------------------------|----------------15-------------|
G|-------------------------------|-------------------------------|
D|-------------------------------|-------------------------------|
A|-------------------------------|-------------------------------|
E|-------------------------------|-------------------------------|




  G7                              G
e|------- ------- ------- -------|------- ------- ------- 3------|
B|0------------------------------|----------------3--------------|
G|0------------------------------|--------0----------------------|
D|3------------------------------|-------------------------------|
A|-------------------------------|2------------------------------|
E|-------------------------------|-------------------------------|

e|------- ------- ------- -------|------- ------- ------- -------|
B|-------------------------------|-------------------------------|
G|0------------------------------|-------------------------------|
D|-------------------------------|-------------------------------|
A|-------------------------------|-------------------------------|
E|-------------------------------|-------------------------------|

e|------- ------- ------- -------|------- ------- ------- -------|
B|-------------------------------|-------------------------------|
G|-------------------------------|-------------------------------|
D|-------------------------------|-------------------------------|
A|-------------------------------|-------------------------------|
E|-------------------------------|-------------------------------|




  Cm                              G
e|3------ ------- ------- 3------|3------ ------- 3------ -------|
B|4-----------------------4------|3---------------3--------------|
G|5-----------------------5------|4---------------3--------------|
D|5-----------------------5------|5---------------5--------------|
A|-------------------------------|-------------------------------|
E|-------------------------------|-------------------------------|

e|------- ------- ------- -------|------- ------- ------- -------|
B|-------------------------------|-------------------------------|
G|5------------------------------|4---------------3--------------|
D|-------------------------------|-------------------------------|
A|-------------------------------|-------------------------------|
E|-------------------------------|-------------------------------|

e|11----- ------- ------- -------|15----- ------- 15----- -------|
B|-------------------------------|-------------------------------|
G|-------------------------------|-------------------------------|
D|-------------------------------|-------------------------------|
A|-------------------------------|-------------------------------|
E|-------------------------------|-------------------------------|




  Fsus2                           Fm
e|3------ ------- ------- -------|------- ------- ------- -------|
B|1-----------------------1------|1---------------1--------------|
G|0------------------------------|1---------------1--------------|
D|3---------------3--------------|3---------------3--------------|
A|-------------------------------|-------------------------------|
E|-------------------------------|-------------------------------|

e|------- ------- ------- -------|------- ------- ------- -------|
B|-------------------------------|-------------------------------|
G|2------------------------------|1------------------------------|
D|-------------------------------|-------------------------------|
A|-------------------------------|-------------------------------|
E|-------------------------------|-------------------------------|

e|------- ------- ------- -------|13----- ------- ------- -------|
B|13-----------------------------|-------------------------------|
G|-------------------------------|-------------------------------|
D|-------------------------------|-------------------------------|
A|-------------------------------|-------------------------------|
E|-------------------------------|-------------------------------|




  G7                              Fm
e|------- ------- ------- -------|------- ------- ------- 1------|
B|0------------------------------|1-------3-------4--------------|
G|0------------------------------|1------------------------------|
D|3------------------------------|3------------------------------|
A|-------------------------------|-------------------------------|
E|-------------------------------|-------------------------------|

e|------- ------- ------- -------|15----- ------- ------- -------|
B|-------------------------------|-------------------------------|
G|0------------------------------|--------13---------------------|
D|-------------------------------|-------------------------------|
A|-------------------------------|-------------------------------|
E|-------------------------------|-------------------------------|

e|------- ------- ------- -------|15----- ------- ------- 13-----|
B|12-----------------------------|--------13------16-------------|
G|-------------------------------|-------------------------------|
D|-------------------------------|-------------------------------|
A|-------------------------------|-------------------------------|
E|-------------------------------|-------------------------------|




  D#                                              D
e|3------ ------- 3------ -------|3------ ------- 2------ -------|
B|4---------------4--------------|4---------------3--------------|
G|3-------3---------------3------|3-------5-------2--------------|
D|-------------------------------|-------------------------------|
A|-------------------------------|-------------------------------|
E|-------------------------------|-------------------------------|

e|------- ------- ------- -------|------- ------- 10----- -------|
B|--------8----------------------|8-------10---------------------|
G|----------------8--------------|8-------10------11-------------|
D|8-----------------------8------|-------------------------------|
A|-------------------------------|-------------------------------|
E|-------------------------------|-------------------------------|
[ Tab from: http://www.guitartabs.cc/tabs/m/mountain/taunta_tab.html ]
e|15----- ------- ------- -------|15----- 17----- 14----- -------|
B|-------------------------------|-------------------------------|
G|-------------------------------|-------------------------------|
D|-------------------------------|-------------------------------|
A|-------------------------------|-------------------------------|
E|-------------------------------|-------------------------------|




                                  Fm
e|2------ ------- ------- -------|------- ------- ------- 1------|
B|3-------3-------3--------------|1-------3-------4--------------|
G|2---------------2-------2------|1------------------------------|
D|------------------------4------|3------------------------------|
A|-------------------------------|-------------------------------|
E|-------------------------------|-------------------------------|

e|------- ------- ------- -------|16----- ------- ------- -------|
B|-------------------------------|-------------------------------|
G|-------------------------------|--------13---------------------|
D|-------------------------------|------------------------10-----|
A|-------------------------------|-------------------------------|
E|-------------------------------|-------------------------------|

e|------- ------- ------- -------|13----- ------- ------- 13-----|
B|-------------------------------|----------------16-------------|
G|-------------------------------|--------13---------------------|
D|-------------------------------|-------------------------------|
A|-------------------------------|-------------------------------|
E|-------------------------------|-------------------------------|




  D#                                      F
e|3------ ------- 3------ -------|3------ 5------ 1------ -------|
B|4---------------4--------------|4---------------1--------------|
G|3-------3---------------3------|3-------5-------2--------------|
D|-------------------------------|-------------------------------|
A|-------------------------------|-------------------------------|
E|-------------------------------|-------------------------------|

e|------- ------- ------- -------|------- ------- ------- -------|
B|--------8----------------------|----------------10-------------|
G|----------------8--------------|8-------10------10-------------|
D|8-----------------------8------|8-------10---------------------|
A|-------------------------------|-------------------------------|
E|-------------------------------|-------------------------------|

e|15----- ------- ------- -------|------- 17----- 13----- -------|
B|-------------------------------|-------------------------------|
G|-------------------------------|-------------------------------|
D|-------------------------------|-------------------------------|
A|-------------------------------|-------------------------------|
E|-------------------------------|-------------------------------|




          G
e|------- ------- ------- 3------|
B|----------------3--------------|
G|--------0----------------------|
D|-------------------------------|
A|-------------------------------|
E|-------------------------------|

e|------- ------- ------- ---1110|
B|-------------------------------|
G|-------------------------------|
D|-------------------------------|
A|-------------------------------|
E|-------------------------------|




  Cm                              G
e|3------ ------- ------- 3------|3------ ------- 3------ -------|
B|4-----------------------4------|3---------------3--------------|
G|5-----------------------5------|4---------------3--------------|
D|5-----------------------5------|5---------------5--------------|
A|-------------------------------|-------------------------------|
E|-------------------------------|-------------------------------|

e|------- ------- ------- -------|------- ------- ------- -------|
B|-------------------------------|-------------------------------|
G|5------------------------------|4---------------3--------------|
D|-------------------------------|-------------------------------|
A|-------------------------------|-------------------------------|
E|-------------------------------|-------------------------------| 

e|11----- ------- ------- -------|15----- ------- 15----- -------|
B|-------------------------------|-------------------------------|
G|-------------------------------|-------------------------------|
D|-------------------------------|-------------------------------|
A|-------------------------------|-------------------------------|
E|-------------------------------|-------------------------------|




  Fsus2                           Fm
e|3------ ------- ------- -------|------- ------- ------- -------|
B|1-----------------------1------|1---------------1--------------|
G|0------------------------------|1---------------1--------------|
D|3---------------3--------------|3---------------3--------------|
A|-------------------------------|-------------------------------|
E|-------------------------------|-------------------------------|

e|------- ------- ------- -------|------- ------- ------- -------|
B|-------------------------------|-------------------------------|
G|2------------------------------|1------------------------------|
D|-------------------------------|-------------------------------|
A|-------------------------------|-------------------------------|
E|-------------------------------|-------------------------------|

e|------- ------- ------- -------|13----- ------- ------- -------|
B|13-----------------------------|-------------------------------|
G|-------------------------------|-------------------------------|
D|-------------------------------|-------------------------------|
A|-------------------------------|-------------------------------|
E|-------------------------------|-------------------------------|




                                  G
e|------- ------- ------- -------|------- ------- ------- 3------|
B|1-------3-------0--------------|----------------3--------------|
G|1------------------------------|--------0----------------------|
D|3------------------------------|-------------------------------|
A|-------------------------------|2------------------------------|
E|-------------------------------|-------------------------------|

e|------- ------- ------- -------|------- ------- ------- -------|
B|-------------------------------|-------------------------------|
G|0------------------------------|-------------------------------|
D|-------------------------------|-------------------------------|
A|-------------------------------|-------------------------------|
E|-------------------------------|-------------------------------|

e|13----- ------- ------- -------|------- ------- ------- -------|
B|-------------------------------|---------------------------1615|
G|-------------------------------|-------------------------------|
D|-------------------------------|-------------------------------|
A|-------------------------------|-------------------------------|
E|-------------------------------|-------------------------------|




  Cm
e|3------ ------- ------- -------|------- ------- ------- 15-----|
B|4------------------------------|----------------13-------------|
G|5------------------------------|5------------------------------|
D|5-----------------------5------|-------------------------------|
A|----------------3--------------|--------10---------------------|
E|--------3----------------------|-------------------------------|

e|------- ------- ------- -------|------- ------- ------- -------|
B|-------------------------------|-------------------------------|
G|-------------------------------|-------------------------------|
D|-------------------------------|--------------3/5-------3------|
A|-------------------------------|-------------------------------|
E|-------------------------------|-------------------------------|

e|------- ------- ------- -------|------- ------- ------- -------|
B|16-----------------------------|----------------20-------------|
G|----------------17-------------|-------------------------------|
D|-------------------------------|-------------------------------|
A|-------------------------------|-------------------------------|
E|-------------------------------|-------------------------------|



 (.

e|20----- ------- ------- -------|------- ------- ------- -------|
B|20-----------------------------|-------------------------------|
G|17-----------------------------|-------------------------------|
D|-------------------------------|-------------------------------|
A|-------------------------------|-------------------------------|
E|-------------------------------|-------------------------------|

e|------- ------- ------- -------|------- ------- ------- -------|
B|-------------------------------|-------------------------------|
G|-------------------------------|-------------------------------|
D|1------------------------------|-------------------------------|
A|-------------------------------|-------------------------------|
E|-------------------------------|-------------------------------|

e|20----- ------- ------- -------|------- ------- ------- -------|
B|-------------------------------|-------------------------------|
G|-------------------------------|-------------------------------|
D|-------------------------------|-------------------------------|
A|-------------------------------|-------------------------------|
E|-------------------------------|-------------------------------|








        B  Bend
        R  Release
        /  Slide up
        \  Slide down
        H  Hammer-on
        P  Pull-off
        ~  Vibrato
        +  Harmonic
        x  Mute note
        .  Play note like a dot in standard notation
        ^  Ties two notes together
        (. Pause
Comments