Mountain - Never In My Life Chords & Tabs

 

Never In My Life Chords & Tabs

Mountain Chords & Tabs

Version: 2 Type: Tab 0 ratings
1 star 2 stars 3 stars 4 stars 5 stars
comments

Never In My Life Tab

Main Riff
[ Tab from: http://www.guitartabs.cc/tabs/m/mountain/never_in_my_life_tab_ver_2.html ]
-----------------------------------------------------|
-----------------------------------------------------|
--------------------2------------2-------------------|
--------2----4-----------4-4-2-4---------------------|
-2-3-4-----------------------------------------------|
-----------------------------------------------------|
      then
----------------------------------------------|
----------------------------------------------|
---------------2------------------------------|
-----2----4--------4---2----------------------|
-234----------------------4----2--------------|
-----------------------------------1----------|

opening

 --------------------------------|
---------------------------------|
---------------------------------|
-4-------------------------------|
-2---232323232323232--------4----|
----------------------3---3------|
Comments