Mountain - For Yasgurs Farm Chords & Tabs

 

For Yasgurs Farm Chords & Tabs

Mountain Chords & Tabs

Version: 1 Type: Bass Tab 0 ratings
1 star 2 stars 3 stars 4 stars 5 stars
comments

For Yasgurs Farm Bass Tab

Artist: Mountain
Song: For Yasgur's Farm

Tabbed by: Disraeliawizard


   intro
G|------------------------|****FUZZ****
D|------------------------|
A|-----------------9------|
E|-10-9-7-5-3-2-0---------|


   first verse
G|-------------------------------------------------------9-------------------|
D|----------------------7-9----------------------9-7---7---------------------|
A|-5-5-5/7-7-7-7h9-9-99-----9--5-0h5-7-7-7-7h9-9-----7-----------------------|
E|---------------------------------------------------------------------------|

G|---------------------------------------------------------------------------|
D|-----------------9-7---7---------------------------------11-11-11----------|
A|-5-0h5-7-7-7-7h9-----9------------5-5-5--5---------------------------------|
E|-------------------------9-9--7-9----------9-9-9--99-9-9-------------------|

G|-----------------11-11-9-----------------------------11-11-9---------------|
D|-------------------------11-9-7------------------------------11-9-7--------|
A|-5-5/7-7-7-7-7h9----------------9--5-5-0h5-7-7-7-7h9----------------9------|
E|---------------------------------------------------------------------------|

G|---------------------------------------------------------------------------|
D|-----------------9-7---7----------------------------111111--------111111---|*these are 11's not 1's
A|-5-5-5-7-7-7-7h9-----9------------555-5--5---------------------------------|
E|-------------------------9-9--7-9----------9-9-9--9---------9p7h9--------9-|


   chorus
G|------1111-11-11-9-11------1111-11-11-9-11---------------------------------------|****FUZZ****
D|---------------------------------------------------------------------------------|
A|-9-99-----------------7-77-----------------------5h7--------5-5-5-5--7-7-7-7-----|
E|-------------------------------------------5-5h7-----5-5-5-----------------------|

[ Tab from: http://www.guitartabs.cc/tabs/m/mountain/for_yasgurs_farm_btab.html ]
   second verse
G|------------------------------------------------------11-9------------------|
D|-----------------------------------------------------------11-9p7h9-7-------|
A|-5-5-5/7-7-7-7-------------------7--5-5-0h5-7-7-7-7h9-----------------9-7---|
E|---------------5-3-2-2-5-3-2-2-5--------------------------------------------|

G|-------------------------------------------------------------------------------------|
D|-------------------9p7--------------------------------111111-9-11-------11p9h11------|
A|-5-5-0h5-7-7-7-7h9-----9----------5-5-5--5-------------------------------------------|
E|-------------------------9-9--7-9----------9-9-9--7h9-------------9p7h9--------------|


   solo
G|-----------------------------------------|
D|---------------------------7--7-9-11-----|
A|----0h5--7-7--7-7h9-9--7-9---------------|
E|--5--------------------------------------|

G|-----------------------------------------|
D|---------------------------7--7-9-11-----|
A|--5-0h5--7-7--7-7h9-9--7-9---------------|
E|-----------------------------------------|

G|----------------------------------------------------------------------------------------|
D|-------------------9-7---7-----9-7--------9-7--------9-7-------11p9h11-------11p9h11----|
A|-5-5-0h5-7-7-7-7h9-----9-----------9--555-----9----------9------------------------------|
E|---------------------------9-9-------------------9-9--------99---------9p7h9------------|



   third verse
G|---------------------11-9------------------------|
D|--------------------------11-9-7-----------------|*repeat twice
A|-5-5-5-5/7-7-7-7-7h9-------------9-7-------------|
E|-------------------------------------------------|

G|----------------------------------------------------------------------------------------|
D|-------------------9-7---7-----9-7--------9-7--------9-7------11p9h11-------11-11p9h11--|
A|-5-5-0h5-7-7-7-7h9-----9-----------9--5-5-----9----------9------------------------------|
E|---------------------------9-9-------------------9-9--------9---------9p7h9-------------|
Comments