Mott The Hoople - One Of The Boys Chords & Tabs

 

One Of The Boys Chords & Tabs

Mott The Hoople Chords & Tabs

Version: 1 Type: Tab 0 ratings
1 star 2 stars 3 stars 4 stars 5 stars
comments

One Of The Boys Tab

   
Mott The Hoople: "One Of The Boys"
Tabbed by T.A.Fieb
                       (^)let ring  (~)bend
                       (h)hammer on  (p) pull off

E-10^----5h7^--7^----12h14^--14^---12p10^--10^--|
B-----------------------------------------------|
G-----------------------------------------------|drop to next staff
D-----------------------------------------------|for next part of riff.
A-----------------------------------------------|
E-----------------------------------------------|
[ Tab from: http://www.guitartabs.cc/tabs/m/mott_the_hoople/one_of_the_boys_tab.html ]
                                                     D     D   C C  C G
E---------------------------------------------------10^---10---8-8-----3-|
B---------------------------------------------------10^---10---8-8-----3-|
G--12~--------12h14~-12---------12------------------11^---11---9-9-----4-|
D-----12^---------------12^--------14-12------------12^---12--10-10----5-|
A----------------------------------------14-12-10p0-12^---12--10-10----5-|
E---------------------------------------------------10^---10---8-8-----3-|

This is for the other guitar that starts with the opening lead.

E--------------------------------------------------------------|
B--------------------------------------------------------------|
G--------11---------------11----9-------4--------------4----9--|  play 3
D-----12-----12---------12----10-----5------5---------5---10---|  times
A---------------12----------------------------5----------------|
E-10-------------------10-----8----3----------------3----8-----|

after this the progression throught the rest of the song is  D C G.....
Comments