Motorpsycho - Mountain Chords & Tabs

 

Mountain Chords & Tabs

Motorpsycho Chords & Tabs

Version: 2 Type: Tab 0 ratings
1 star 2 stars 3 stars 4 stars 5 stars
comments

Mountain Tab

   
#----------------------------------PLEASE NOTE---------------------------------#
#This file is the author's own work and represents their interpretation of the #
#song. You may only use this file for private study, scholarship, or research. #
#------------------------------------------------------------------------------##
From: Kalle@stud.oa.hist.no (Kalle)

Here's the TAB for the excellent Motorpsycho-song Mountain.
Feel free to correct. dahlk@stud.oa.hist.no

Mountain by Motorpsycho

(Key of A)

(Drums)   (1st riff)
----------| -------------------------------------|------------------|
----------| -------------------------------------|------------------|
---5---6--|o --------------------------5---6---7-|------------------|
---5---6--|o 5---6---7---7--5--7--5----5---6---7-|------------------|
---3---4--| -5---6---7---7--5--7--5----3---4---5-|------------------|
----------| -3---4---5---5--3--5--3--------------|------------------|

          | -------------------------------------|------------------|
          | -------------------------------------|------------------|
          | ---------------------------5---6-----|------------------|
          | -5---6---7---7--5--7--5----5---6-----|------------------|
          | -5---6---7---7--5--7--5----3---4-----|------------------|
          | -3---4---5---5--3--5--3--------------|------------------|


          | -------------------------------------|------------------|
          | -------------------------------------|------------------|
          | ---------------------------5---6---7-|------------------|
          | -5---6---7---7--5--7--5----5---6---7-|------------------|
          | -5---6---7---7--5--7--5----3---4---5-|------------------|
          | -3---4---5---5--3--5--3--------------|------------------|
[ Tab from: http://www.guitartabs.cc/tabs/m/motorpsycho/mountain_tab_ver_2.html ]
          | -------------------------------------|------------------|
          | -------------------------------------|------------------|
          | ------------------------------------o|------------------|
          | -5---6---7--------5-----------------o|------------------|
          | -5---6---7-----7------7---5--3-------|------------------|
          | -3---4---5-----------------------5---|------------------|
          (repeat 1st riff) (Some times with only notes, not chords...)

(2nd riff)
|-------------------------------------------------------|
|-------------------------------------------------------|
|o-----------------------------------------------------o|
|o---------------------------2-------------------------o|
|---7----5-------------------2-----7---5----------------|
|-------------7----5----3----0-------------7----5---3---|

|-------------------------------------------------------|
|-------------------------------------------------------|
|o---------------------------2-------------------------o|
|o--7----5-------------------2-----7---5---------------o|
|-------------7----5----3----0-------------7----5---3---|
|-------------------------------------------------------|
(Through piano solo)

(Release to quieter part:)
   Oh it's.  sometimes..that  don't exist...
|------------------------------------------------------|
|------------------------------------------------------|
|--5--------7-----------------9------------------------|
|--5--------7-----------------9------------------------|
|--3--------5-----------------7------------------------|
|-----------------------------0------------------------|
                          (For instance...)


The cool bassriff:

|------------------------------------------------|
|------------------------------------------------|
|------------------------------------------------|
|------5----3-5---3---5-5-----0---3---5--5----3--| etc.adlib

Kalle
Comments