Motorpsycho - Demon Box Chords & Tabs

 

Demon Box Chords & Tabs

Motorpsycho Chords & Tabs

Version: 1 Type: Bass Tab 0 ratings
1 star 2 stars 3 stars 4 stars 5 stars
comments

Demon Box Bass Tab

I think the song mainly consists of these basslines in varied orders.

G-----------------------------------------------------------------------------
D-----------------------------------------------------------------------------
A---0-0-0-0-0-0-0-0-3-3-3-3-3-3-3-3-2-2-2-2-2-2-2-2-3-3-3-3-3-3-3-3-----------
E-----------------------------------------------------------------------------

[ Tab from: http://www.guitartabs.cc/tabs/m/motorpsycho/demon_box_btab.html ]
G-----------------------------------------------------------------------------
D-------2---1b-------------5b--4-----------2---1b-----------------------------
A---0-3---0-----0-3---0----------------0-3---0-----0-3---x-x-x-x-x-x-x--------
E-----------------------------------------------------------------------------


G-----------------------------------------------------------------------------
D-----------------------------------------------------------------------------
A---0h1p0-0-0-0h1p0--0-0h1p0--0-0-0-0h1p0-------------------------------------
E-----------------------------------------3-----------------------------------
Comments