Motorhead - Wwf Theme Triple H Chords & Tabs

 

Wwf Theme Triple H Chords & Tabs

Motorhead Chords & Tabs

Version: 1 Type: Tab 1 rating
1 star 2 stars 3 stars 4 stars 5 stars
comments

Wwf Theme Triple H Tab

"Play The Game" (Trpile H theme)
by Motorhead
album: WWF the music vol. 5



standard tuning:
Riff 1
------------------------------------------------------------------
------------------------------------------------------------------
------------------------------------------------------------------
--2------------------------2--2-------------2-2-2--------2-2-2--------------
--2------------------------2--2-------------2-2-2--------2-2-2---X4-------
--0------------------------0- 0-------------0-0-0--------0-0-0---------
    "Time to play the game"     "ha ha ha"



Riff 2

[ Tab from: http://www.guitartabs.cc/tabs/m/motorhead/wwf_theme_triple_h_tab.html ]
-----------------------------------------------------------------------          R
-----------------------------------------------------------------------          E
--------------------------5-2------------------------------------------          A
--2-2-5-4-------------2-2-5-2-------------2-2-5-4----------------------          p
--2-2-5-4-------------2-2-3-4-----X3------2-2-5-4-------------------------       E 
--0-0-3-2-------------0-0-----------------0-0-3-2------------------------------- T
"Its all about....."                              "and i know you can't take me



Riff 3
-----------------------------------------------------------------------
-----------------------------------------------------------------------
-----------------------------------------------------------------------
--2------5----7--------2------7-----5---------------------------------
--2------5----7--------2------7-----5-----------X4----------------------
--0------3----5--------0------5-----3----------------------------------------             
"Look over your......" 



This is how Motorhead play it so its all that your going to need, 

submitted by Neil Thompson (the_wicker_man_84@hotmail.com)
Comments