Motorhead - We Are The Road Crew Chords & Tabs

 

We Are The Road Crew Chords & Tabs

Motorhead Chords & Tabs

Version: 1 Type: Tab 0 ratings
1 star 2 stars 3 stars 4 stars 5 stars
comments

We Are The Road Crew Tab

          Motörhead-"(We Are)The Road Crew"
          
          Intro:
          1-|--------------------------------------1-----------
          2-|----------------------------------1-3---3---------
          3-|--------------------------------2-----------------
          4-|----6-4-----6-4----6-4--------2-------------------
          5-|--------5-2-----5-2----5-2-4----------------------
          6-|--------------------------------------------------
          
          Verse1
          "Another town......"
          5-|-10-10-10-10-10-10-10...    
          6-|-12-12-12-12-12-12-12...
          
          ending:
          "...another race."
          5-|-6-6-6-4-4-4
          6-|-4-4-4-2-2-2
          
          
          for the part that sez "we are the road crew":
          1-|--------------------1--
          2-|----------------1-3--3-
          3-|--------------2--------
          4-|-6-4--------2----------
          5-|-----5-2-4-------------
          
          During the SOLO (which I ain't tab)
          play verse1 with its ending, its not hard isn'e
          
          anyhtin to say:
          --Guillermo luppi
          lordaborto@mixmail.com
[ Tab from: http://www.guitartabs.cc/tabs/m/motorhead/we_are_the_road_crew_tab.html ]
Comments