Motorhead - We Are Motorhead Chords & Tabs

 

We Are Motorhead Chords & Tabs

Motorhead Chords & Tabs

Version: 1 Type: Bass Tab 0 ratings
1 star 2 stars 3 stars 4 stars 5 stars
comments

We Are Motorhead Bass Tab

   
                           M O T Ö R H E A D
                        WE ARE MOTORHEAD (2:21)
                       (Kilmister/Campbell/Lee)
             

Tune to Eb.

Intro/Verse
-------------------
-2-0-2-00-2-0-2-00-
-------------------
-------------------

Pre
----------
-----------
-----------
-5---0-0-0-
[ Tab from: http://www.guitartabs.cc/tabs/m/motorhead/we_are_motorhead_btab.html ]
Chorus
-------------------
-------------------
-3----5------------
-------------------

Solo
-----------------------
-----------------------
-2-2-2-2-2-------------
------------2-2-2-2-2--

-------------------
-------------------
-5------7----------
-------------------

Ending
----------
----------
-7-5--7---
----------

/metal_up_your_ass@2die4.com
Comments