Motorhead - Wake The Dead Chords & Tabs

 

Wake The Dead Chords & Tabs

Motorhead Chords & Tabs

Version: 1 Type: Bass Tab 0 ratings
1 star 2 stars 3 stars 4 stars 5 stars
comments

Wake The Dead Bass Tab

   
                                 W A K E  U P  D E A D
                                   M O T Ö R H E A D 
                                       (5:14)

Intro/Verse
-----------
-----------
-----------
-0---------
 Let Ring


Pre
-------------------------------
-------------------------------
-5/7-7---7-------5/7-7---7-----
-------0----0-0--------0----1--
[ Tab from: http://www.guitartabs.cc/tabs/m/motorhead/wake_the_dead_btab.html ]
Chorus
---------------------------------
---------------------------------
----------------------------3-2--
-0---3-5*--3-1--0-1-0-1-0-1------ 
                Fast Lemmy style
Note, the second time on chorus, play * twice.

--------------
--------------
-5-7-7-7-7-7--
--------------
 Also fast...


Now the bridge, Lemmy´s kind of improvising.... At least it sounds like it... but just 
play the chords E (high on 7th) and D...

End of Bridge
----------------------|--------------------------
------5-------5-------|--------------------------
--5-7---7-5-7---7-----|-7-7-7-7-7-----7-7-7-7-7--
----------------------|--------------------------


Ending of song
------------------------------------
------------------------------------
-7-5-7-7-5-7-7-5-7-1----5-5-5-5-5-5-
------------------------------------

sorry, I missed the fast breakdown... /metal_up_your_ass@2die4.com
Comments