Motorhead - The Game Chords & Tabs

 

The Game Chords & Tabs

Motorhead Chords & Tabs

Version: 4 Type: Tab

The Game Tab

Tab by David Ross
Motorhead - The Game

E   ------------------------------------------|
B   ------------------------------------------|
G   ------------------------------------------|
D   ---2---2---22---2-------------------------|
A   ---2---2---22---2-------------------------|
E   ---0---0---00---0-------------------------|


E   ------------------------------------------|
B   ------------------------------------------|
G   ------------------------------------------|
D   ---222-222--------------------------------| X4
A   ---222-222--------------------------------|
E   ---000-000---*pick scrape-----------------|


E   ------------------------------------------|
B   ------------------------------------------|
G   -------------------5\4--------------------|
D   ---22---5\4---22---5\4--------------------| X8
A   ---22---5\4---22---3\2--------------------|
E   ---00---3\2---00--------------------------|


E   ------------------------------------------|
B   ------------------------------------------|
G   ------------------------------------------|
D   ---2---5/7---2---7\5----------------------| X4
A   ---2---5/7---2---7\5----------------------|
E   ---0---3/5---0---5\3----------------------|

[ Tab from: http://www.guitartabs.cc/tabs/m/motorhead/the_game_tab_ver_4.html ]
E   -------------------------------------------|
B   -------------------------------------------|
G   ---------3---------3---------2---------2---|
D   ---222---3---222---3---222---2---222---2---| X4
A   ---222---1---222---1---222---0---222---0---|
E   ---000-------000-------000-------000-------|


E   -------------------------------------------|
B   -------------------------------------------|
G   -------------------------------------------|
D   ---222-222---------------------------------| X4
A   ---222-222---------------------------------|
E   ---000-000---*pick scrape------------------|


E   -------------------------------------------|
B   -------------------------------------------|
G   -------------------5\4---------------------|
D   ---22---5\4---22---5\4---------------------| X8
A   ---22---5\4---22---3\2---------------------|
E   ---00---3\2---00---------------------------|

E   -------------------------------------------|
B   -------------------------------------------|
G   -------------------------------------------|
D   ---2---5/7---2---7\5-----------------------| X4
A   ---2---5/7---2---7\5-----------------------|
E   ---0---3/5---0---5\3-----------------------|

E   -------------------------------------------|
B   -------------------------------------------|
G   -------------------5\4---------------------|
D   ---22---5\4---22---5\4---------------------| Repeat and fade out
A   ---22---5\4---22---3\2---------------------|
E   ---00---3\2---00---------------------------|