Motorhead - The Game Chords & Tabs

 

The Game Chords & Tabs

Motorhead Chords & Tabs

Version: 3 Type: Tab 0 ratings
1 star 2 stars 3 stars 4 stars 5 stars
comments

The Game Tab

   
This song is on standard tuning e b g d a e

time to play the game
 e ------------------------------------------------------------|
 B ------------------------------------------------------------|
 G ------------------------------------------------------------|
 D -------7----7-7-------7-7-7---------------------------------|
 A -------7----7-7-------7-7-7---------------------------------|
 E -------5----5-5-------5-5-5---------------------------------|


 e ------------------------------------------------------|
 B ------------------------------------------------------|
 G ------------------------------------------------------|
 D ---7-7-7---7-7-7---7-7-7---7-7-7----10----------------|
 A ---7-7-7---7-7-7---7-7-7---7-7-7----10----------------|
 E ---5-5-5---5-5-5---5-5-5---5-5-5----8-----------------|

 repeat this part again


its all about the game ........
[ Tab from: http://www.guitartabs.cc/tabs/m/motorhead/the_game_tab_ver_3.html ]
 strum on this part
 e --------------------------------------------------------------|
 B --------------------------------------------------------------|
 G --------------------------------------------------------------|
 D -----7-7-7-7-7---10-------------------------------------------|
 A -----7-7-7-7-7---10-------------------------------------------|
 E -----5-5-5-5-5---8--------------------------------------------|
               slide

 e --------------------------------------------------------------------|
 B --------------------------------------------------------------------|
 G --------------------------------------------------------------------|
 D -----7-7-7-7-7---10-10-10-10----------------------------------------|
 A -----7-7-7-7-7---10-10-10-10----------------------------------------|
 E -----5-5-5-5-5---8--8--8--8-----------------------------------------|

 solo
 e -------------------------------------------------------------------|
 B -------------------------------------------------------------------|
 G ------------8--8-7---------7-7-6-----------------------------------|
 D -----7-7-7--8--8-7--7-7-7--7-7-6-----------------------------------|
 A -----7-7-7--6--6-5--7-7-7--5-5-4-----------------------------------|
 E -----5-5-5----------5-5-5------------------------------------------|

 e ------------------------------------------------------|
 B ------------------------------------------------------|
 G ------------------------------------------------------|
 D ---7-7-7---7-7-7---7-7-7---7-7-7----10----------------|
 A ---7-7-7---7-7-7---7-7-7---7-7-7----10----------------|
 E ---5-5-5---5-5-5---5-5-5---5-5-5----8-----------------|


it is a very easy song ....for any comments
plz contact gnxsmoker@hotmail.com
Comments