Motorhead - The Game Chords & Tabs

 

The Game Chords & Tabs

Motorhead Chords & Tabs

Version: 2 Type: Tab 0 ratings
1 star 2 stars 3 stars 4 stars 5 stars
comments

The Game Tab

   
Song-The Game
Artist-Motorhead
Album-WWF The Music Vol.5
Tabbed by-Richard (rmwaters3000@hotmail.com)

I think this song is 100% correct apart from the interlude.

Tune all guitars down a half step (Eb ab db gb bb Eb)

INTRO
 ---------------------------------------------------------------- 
 ----------------------------------------------------------------
 ----------------------------------------------------------------
 --2--2--22--2--222-222-222-222-222-222-222-222--12/-------------
 --2--2--22--2--222-222-222-222-222-222-222-222--12/-------------
 --0--0--00--0--000-000-000-000-000-000-000-000--12/-------------

RIFF 1
 ----------------------------------------------------------------
 ----------------------------------------------------------------
 ------------5-4-------------5-4-------------5-4-------------5-4-
 -22-5-4-222-5-4--22-5-4-222-5-4--22-5-4-222-5-4--22-5-4-222-5-4-
 -22-5-4-222-3-2--22-5-4-222-3-2--22-5-4-222-3-2--22-5-4-222-5-4-
 -00-3-2-000------00-3-2-000------00-3-2-222------00-3-2-000-----
Do this 2 times but leave out the dotted bits 2nd time   ........
[ Tab from: http://www.guitartabs.cc/tabs/m/motorhead/the_game_tab_ver_2.html ]
RIFF 2
 ----------------------------------------------------------------
 ----------------------------------------------------------------
 ----------------------------------------------------------------
 --222-5-7--222-7-5----------------------------------------------
 --222-5-7--222-7-5----------------------------------------------
 --000-3-5--000-5-3----------------------------------------------

INTERLUDE (Guitar 1)
 ----------------------------------------------------------------
 ----------------------------------------------------------------
 ----------------------------------------------------------------
 --22-7-22-8-22-8-22-7--------------222-222----------------------
 --22-7-22-8-22-8-22-7---X4---------222-222---X4-----------------
 --00-5-00-6-00-6-00-5--------------000-000----------------------

INTERLUDE (GUITAR 2)
 ----------------------------------------------------------------
 -11s10----------------------------------------------------------
 ----------------------------------------------------------------
 ----------------------------------------------------------------
 ----------------------------------------------------------------
 ----------------------------------------------------------------

Thats it. Pretty easy. Listen to the song to get it perfect.
Comments