Motorhead - Stay Clean Chords & Tabs

 

Stay Clean Chords & Tabs

Motorhead Chords & Tabs

Version: 1 Type: Bass Tab 0 ratings
1 star 2 stars 3 stars 4 stars 5 stars
comments

Stay Clean Bass Tab

Motorhead-"Stay Clean SOLO"

by guillermo luppi: Lordaborto@mixmail.com
Bass solo
1|-------------------------------|--------------------------------|
2|---------------5-777-7---7-7-7-|-----5-6h7p6-5-7-5-5-5-7--7-7-7-|
3|-7--7-7--7-7-7-------5---5-5-5-|-7-7-------------------5--5-5-5-|
4|-------------------------------|--------------------------------|

1|---------------------------------|---------------------------------|
2|------5---5-7/9\7-5-777-7---7-7-7|------5---5-7/9\7-5-777-7---7-7-7|
3|-7-7----7---------------5---5-5-5|-7-7----7---------------5---5-5-5|
4|---------------------------------|---------------------------------|
[ Tab from: http://www.guitartabs.cc/tabs/m/motorhead/stay_clean_btab.html ]
1|---------------7---7-8-9----|-7-9-9-11-11-12-12-11-12-14-14-14-12-12-11-11--|
2|-----5-6-7-8-9---9----------|----------------------------------------------|
3|-7-7------------------------|----------------------------------------------|
4|----------------------------|----------------------------------------------|

1|-12-12-14-14-12-12-11-11-12-14-12-11-12-1111-12-11--11-999-11-999-|
2|------------------------------------------------------------------|
3|------------------------------------------------------------------|
4|------------------------------------------------------------------|

1|-9--7---------------------|
2|-------9--8--7--5----5--7-|
3|------------------7-------|
4|--------------------------|
Comments