Motorhead - Speedfreak Chords & Tabs

 

Speedfreak Chords & Tabs

Motorhead Chords & Tabs

Version: 1 Type: Tab 0 ratings
1 star 2 stars 3 stars 4 stars 5 stars
comments

Speedfreak Tab

-  Intro   -

(begins in a short time after bass playing)

---------------------------------------|
-----09--------09--------09--------09--|
-09--11----09--11----09--11----09--11--|
-11--11----11--11----11--11----11--11--|
-11--------11--------11--------11------|
---------------------------------------|
(Then drums start to plays)


-   Riff   -

------------------|
------------------|
-09---------------|
-11---------------|
-11--9h11h9-7-9-7-|
------------------|
(repeat it 4 times)


-   Pre-Chorus   -
[ Tab from: http://www.guitartabs.cc/tabs/m/motorhead/speedfreak_tab.html ]
-555555555555555555555555-333333333333333333333333
-777777777777777777777777-555555555555555555555555
-777777777777777777777777-555555555555555555555555
--------------------------------------------------|
--------------------------------------------------|
--------------------------------------------------|
(2 times)


-    Chorus      -

-22-222-44-444---|  |-111111111111111111111-------|
-44-444-66-666---|  |-333333333333333333333-------|
-44-444-66-666---|3x|-333333333333333333333-------|
-----------------|  |-----------------------------|
-----------------|  |-----------------------------|
-----------------|  |-----------------------------|

Song follow this order after that:

-Riff-
-Pre Chorus-
-Chorus-
-Riff-
-Guitar Solo-
-Riff-
-Pre Chorus-
-Chorus-
-Riff-

An easy, but vry good song, like almost all in motorhead.

Note: If u find any errors in this tablature, or knows how to plays the guitar solo, plz 
me: (brunosangiorgi@gmail.com)
Comments