Motorhead - Smiling Like A Killer Chords & Tabs

 

Smiling Like A Killer Chords & Tabs

Motorhead Chords & Tabs

Version: 1 Type: Tab 0 ratings
1 star 2 stars 3 stars 4 stars 5 stars
comments

Smiling Like A Killer Tab

   
Track : Smiling Like A Killer
Artist: Motorhead
Album : Inferno
Tabbed By Simon Winter (Heart of Darkness)

Eb Tuning

e|----------------------------------------------------------------------------------------|
B|----------------------------------------------------------------------------------------|
G|---9-9-7-9-x-x-9-9-7-9-x-x-9-9-7-9-x-x-9-9-7-9-x-x-9-9-7-9-x-x-9-9-7-9-x-x-9-9-7-9-x-x--|
D|---9-9-7-9-x-x-9-9-7-9-x-x-9-9-7-9-x-x-9-9-7-9-x-x-9-9-7-9-x-x-9-9-7-9-x-x-9-9-7-9-x-x--|
A|---7-7-7-7-x-x-7-7-7-7-x-x-7-7-7-7-x-x-7-7-7-7-x-x-7-7-7-7-x-x-7-7-7-7-x-x-7-7-7-7-x-x--|
E|----------------------------------------------------------------------------------------|

======================================================= 
(I'm the one you never see, in the dead of night) etc

e|------------------------------------------------|(sometimes end on)|------|
B|------------------------------------------------|                  |------|
G|-9-9-7-9-x-x-9-9-7-9-x-x------------------------|                  |------|
D|-9-9-7-9-x-x-9-9-7-9-x-x-10-10-10-x-x-10-10-10--|                  |-9-9-9|
A|-7-7-7-7-x-x-7-7-7-7-x-x-10-10-10-x-x-10-10-10--|                  |-9-9-9|
E|--------------------------8--8--8-x-x-8--8--8---|                  |-7-7-7|


======================================================
(Killers in the house, Killers in the yard) etc 
[ Tab from: http://www.guitartabs.cc/tabs/m/motorhead/smiling_like_a_killer_tab.html ]
e|-------------------------------------------------|(sometimes end with lots of percussion muting)
B|-------------------------------------------------|
G|----------------------9-9-7-9-x-x-9-9-7-9-x-x----|
D|--7-------------------9-9-7-9-x-x-9-9-7-9-x-x----|
A|--7-------------------7-7-7-7-x-x-7-7-7-7-x-x----|
E|--5----------------------------------------------|


========================================================
 (smiling at your pets, they know where you come from, they know where you come from)
e|--------------------------------------------------------------------------|
B|--------------------------------------------------------------------------|
G|--------------------------------------------------------------------------|
D|-5-------------7------9--9--11--9--11--9--11--9--11--9--11--9--11--9--11--|
A|-5-------------7------9--9--11--9--11--9--11--9--11--9--11--9--11--9--11--|
E|-3-------------5------7--7--7---7--7---7--7---7--7---7--7---7--7---7--7---|


===========================================================
(behind solo)

e|-------------------------------------------------------|
B|-------------------------------------------------------|
G|-7-----9-----7-----------------------7-----9-----7-----|
D|-7--7--9--9--7--7--2-----------------7--7--9--9--7--7--|
A|-5--7--7--9--5--7--2--(pickscrape)---5--7--7--9--5--7--|
E|----5-----7-----5--0--------------------5-----7-----5--|

E|-------------------------------------------------|
B|-------------------------------------------------|
G|-------------------------------------------------|
D|-9--9--11--9--11-9--11--9--11-9--11-9--11--9--11-|
A|-9--9--11--9--11-9--11--9--11-9--11-9--11--9--11-|
E|-7--7--7---7--7--7--7---7--7--7--7--7--7---7--7--|

============================================================
You can work out where to play stuff/how many times to play it, minus the solo and a
couple of random slides, its pretty much all here.


 x = percussion mute
Comments