Motorhead - Sacrifice Chords & Tabs

 

Sacrifice Chords & Tabs

Motorhead Chords & Tabs

Version: 1 Type: Tab 0 ratings
1 star 2 stars 3 stars 4 stars 5 stars
comments

Sacrifice Tab

   
Motörhead-"Sacrifice"

tabbed by guillermo lupip:Lordaborto@mixmail.com
Tune down half a step to Eb.

Main riff
e|------------------------|
B|------------------------|
G|------------------------|
D|------------------------|
A|------------------------|
E|-0-0-000-0-0-00-0-0-000-|
   
Verses 1 & 2                (twice)
e|------------------------|------------------------|
B|------------------------|------------------------|
G|------------------------|---5---------2----------|
D|------------------------|---5---------2----------|
A|------------------------|---3---------0----------|
E|-0-0-000-0-0-00-0-0-000-|------------------------|
   
Chorus
e|-------------------|
B|-------------------|
G|-------------------|
D|-9-9-----------7-7-|
A|-7-7-7-79-9-99-5-5-|
E|-----5-57-7-77-----|
[ Tab from: http://www.guitartabs.cc/tabs/m/motorhead/sacrifice_tab.html ]
Bridge (3 times)                    (4th time)
e|---------------------------------|----------------------------------|
B|---------------------------------|----------------------------------|
G|---------------------------------|----------------------------------|
D|------------8-8-8-8/9------9-----|------------8-8-8-8-----------8-8-|
A|------------8-8-8-8/9------9-----|------------8-8-8-8-----------8-8-|
E|-3333333333-6-6-6-6/7------7-----|-3333333333-6-6-6-6-333333333-6-6-|

Verse 3                    (twice)
e|------------------------|------------------------|
B|------------------------|------------------------|
G|------------------------|---5---------2----------|
D|---------9----------3/4-|---5---------2----------|
A|---------7----------1/2-|---3---------0----------|
E|-0-0-000-0-0-00-0-0-----|------------------------|
Comments