Motorhead - Ridin With The Driver Chords & Tabs

 

Ridin With The Driver Chords & Tabs

Motorhead Chords & Tabs

Version: 1 Type: Tab 0 ratings
1 star 2 stars 3 stars 4 stars 5 stars
comments

Ridin With The Driver Tab

   
Motorhead-"Ridin with the driver"
tabbed by guillermo luppi:Lordaborto@mixmail.com
Tune down to Eb (half a step).
Riff A
e|------------------------------|
B|------------------------------|
G|------------------------------|
D|-7-777710101010105-55555-5555-|
A|-5-55558-8-8-8-8-3-33333-3333-|
E|------------------------------|

Riff B
e|----------------------------------------------------------------------
B|----------------------------------------------------------------------
G|----------------------------------------------------------------------
D|-------------------------12-1212121212-1212121212-1212121212-12121212-
A|-7-77777-77777-77777-777710-1010101010-1010101010-1010101010-10101010-
E|-5-55555-55555-55555-5555---------------------------------------------

Riff C
e|--------------------------|
B|--------------------------|
G|--------------------------|
D|-3-33334-44445-55556-6666-|
A|-1-11112-22223-33334-4444-|
E|--------------------------|
[ Tab from: http://www.guitartabs.cc/tabs/m/motorhead/ridin_with_the_driver_tab.html ]
Riff D
e|-------------------------------------------------------|
B|-------------------------------------------------------|
G|-------------------------------------------------------|
D|-9-99999-99999-99999-99999-99999-999910-101010109-9999-|
A|-7-77777-77777-77777-77777-77777-77778--8-8-8-8-7-7777-|
E|-------------------------------------------------------|

Riff E
e|--------------------------------------------------|
B|--------------------------------------------------|
G|--------------------------------------------------|
D|-3-33334-44445-55556-66665-55556-66667-77778-8888-|
A|-1-11112-22223-33334-44443-33334-44445-55556-6666-|
E|--------------------------------------------------|

Riff F
e|-------------------------------|
B|-------------------------------|
G|-------------------------------|
D|-9-999912-121212127-77777-7777-|
A|-7-777710-101010105-55555-5555-|
E|-------------------------------|

Riff G
e|----------------------------------------------------------------------
B|----------------------------------------------------------------------
G|----------------------------------------------------------------------
D|-------------------------14-1414141414-1414141414-1414141414-14141414-
A|-9-99999-99999-99999-999912-1212121212-1212121212-1212121212-12121212-
E|-7-77777-77777-77777-7777---------------------------------------------

Riff H
e|---------------------------------------------------|
B|---------------------------------------------------|
G|---------------------------------------------------|
D|-9-9\-------9-9\-------9-9\-------9-9--------------|
A|-7-7\-------7-7\-------7-7\-------7-7--------------|
E|------------------------------------/--------------|
Comments