Motorhead - Overkill Chords & Tabs

 

Overkill Chords & Tabs

Motorhead Chords & Tabs

Version: 1 Type: Tab 0 ratings
1 star 2 stars 3 stars 4 stars 5 stars
comments

Overkill Tab

Motörhead-"Overkill"
Tabbed by guillermo luppi: Lordaborto@mixmail.com

Tuning: Eb (down half a step).
Intro
1|-----------|
2|-----------|
3|-----------|
4|-999-9-997-|
5|-777-7-775-| The bass is just fiddling around between the 5th & 7th
6|-----------| frets.

Only way to feel the noise.....
1|--------------------|
2|--------------------|
3|--------------------|
4|-14-12------14-12---|
5|-12-10------12-10---|
6|--------------------|

Don't sweat it...
1|----------------|
2|----------------|
3|----------------|
4|-7-55-----7-55--|
5|-5-33-----5-33--|
6|----------------|

1|--------------------|
2|--------------------|
3|--------------------|
4|-----12------12-14--|
5|-----10------10-12--|
6|-0000----0000-------|

Overkill.....
1|----------------------------------------|
2|----------------------------------------|
3|----------------------------------------|
4|----------------------7-7-7-7-7-77------|
5|-4444-9979-9-9-7-4444-5-5-5-5-5-55------|
6|-2222-7757-7-7-5-2222-------------------|

[ Tab from: http://www.guitartabs.cc/tabs/m/motorhead/overkill_tab.html ]
1|--------------------------------------------------|
2|--------------------------------------------------|
3|--------------------------------------------------|
4|-----14-----14-----14-----14--14--14--14--14-1414-|
5|-----12-----12-----12-----12--12--12--12--12-1212-|
6|-0000---0000---0000---0000------------------------|

1st solo backing
1|-----------------|
2|-----------------|
3|-----------------|
4|-----------------|
5|-5-7-7-7-7-7-7-7-|
6|-3-5-5-5-5-5-5-5-|

2nd & 4th solo backings
1|-------------|-------------|-------------|-----------------|
2|-------------|-------------|-------------|-----------------|
3|-------------|-------------|-------------|-----------------|
4|-9-9-9-9-9-9-|-7-7-7-7-7-7-|-5-5-5-5-5-5-|-5--4--5--4--5-4-|
5|-7-7-7-7-7-7-|-5-5-5-5-5-5-|-3-3-3-3-3-3-|-3--2--3--2--3-2-|
6|-------------|-------------|-------------|-----------------|

3rd & 5th solo backings
1|-------------|-------------|-------------|-----------------|
2|-------------|-------------|-------------|-----------------|
3|-9-9-9-9-9-9-|111111111111-|121212121212-|14-12-14-12-1412-|
4|-------------|-------------|-------------|-----------------|
5|-7-7-7-7-7-7-|-9-9-9-9-9-9-|101010101010-|12-10-12-10-1210-|
6|-------------|-------------|-------------|-----------------|
Comments