Motorhead - One More Fucking Time Chords & Tabs

 

One More Fucking Time Chords & Tabs

Motorhead Chords & Tabs

Version: 1 Type: Bass Tab 0 ratings
1 star 2 stars 3 stars 4 stars 5 stars
comments

One More Fucking Time Bass Tab

   
                               M O T Ö R H E A D
                           JUST ONE MORE FUCKING TIME
                               We Are Motörhead



[ Tab from: http://www.guitartabs.cc/tabs/m/motorhead/one_more_fucking_time_btab.html ]
Verse
------------|---------|
------------|---------|
-0-------3--|-------0-|
------------|-3--2----|

Chorus/Solo
----------------------
----------------------
------3----5----/7----
-0------------------0-

Bridge
--------------------
--------------------
-3----------5-----0-
------3-------------



/metal_up_your_ass@2die4.com
Comments