Motorhead - Mean Machine Chords & Tabs

 

Mean Machine Chords & Tabs

Motorhead Chords & Tabs

Version: 1 Type: Tab 0 ratings
1 star 2 stars 3 stars 4 stars 5 stars
comments

Mean Machine Tab

   
wicked song, wicked band

tuning-half step down-Eb Ab Db Gb Bb Eb

verse(midnight runnaway...)

1------------------------------|
2------------------------------|
3--------5------5------5-7-5-7-|
4-77-575-57-575-57-575-5-7-5-7-|
5-00-000--0-000--0-00----------|
6------------------------------|

Chorus(open your eyes...)
[ Tab from: http://www.guitartabs.cc/tabs/m/motorhead/mean_machine_tab.html ]
1----------------------------------------|
2----------------------------------------|
3----------5-7-5-7--5-7-5-7--------------|
4-3---5----5-7-5-7--5-7-5-7---3---5---4--|
5-3---5---0-0-0-0--0-0-0-0----3---5---4--|
6-1---3-----------------------1---3---2--|

Bridge

1----------------------|
2----------------------|
3-7---12---10---12-----|
4-7---12---10---12-----|
5-5---10---8----10-----|
6-5---10---8----10-----|

im not gonna bother tabbing the solo, most of it is just one note with a buch of effests 
If you got any questions, my e-mail is horny_devil183@hotmail.com

peace
Comments