Motorhead - Louie Louie Chords & Tabs

 

Louie Louie Chords & Tabs

Motorhead Chords & Tabs

Version: 3 Type: Bass Tab 0 ratings
1 star 2 stars 3 stars 4 stars 5 stars
comments

Louie Louie Bass Tab

   
Standard tuning (EADG)

VERSE

G-------------------------
D-------------------------
A----0-0-0-5-5--7-7-7-5-5-
E-12/---------------------

CHORUS

G-------------------
D-------------------
A-0-5-5--7-7-7-7-5~-
E-------------------
[ Tab from: http://www.guitartabs.cc/tabs/m/motorhead/louie_louie_btab_ver_3.html ]
SOLO

G---------------------
D---------------------
A-0-0-0-5-5/7-7-7/5-5-
E---------------------

OUTRO

G---------
D---------
A-0-0-0-0-
E---------

Thats it! 
Any comments or questions e-mail me at Leeuk123@aol.com
Comments