Motorhead - Live To Win Chords & Tabs

 

Live To Win Chords & Tabs

Motorhead Chords & Tabs

Version: 1 Type: Bass Tab 0 ratings
1 star 2 stars 3 stars 4 stars 5 stars
comments

Live To Win Bass Tab

Intro1
G------------------------------------|
D------------------------------------|
A----------5-4------------------5-4--|
E-5h7-777--------5h7-7777-7777-------|

G----------------------------------------------|
D----------------------------------------------|
A----------------5-4------------------5-4-7----|
E-5h7-7777-7777--------5h7-7777-7777-----------|

Intro 2
G-------------------------------|
D-------------------------------|
A-----------5-4-----------------|
E-5h7-7777--------5-555-5h7777--|
Play intro 1 once and intro 2 four times, then

Verse 1
G--------------|
D--------------|
A-3h5-5555-----|
E--------------|
Play 8 times, then play intro 2 twice, then

Verse 2
G-------------------|
D-------------------|
A-1h3-3333333-------|
E-------------------|
Play 3 times then
[ Tab from: http://www.guitartabs.cc/tabs/m/motorhead/live_to_win_btab.html ]
G-----------------|
D-----------------|
A-----------------|
E-1h3-333333------|

Back to intro 2 four times
Verse 1
Intro 2 twice
Verse 2
Intro 2 four times

Guitar solo
G-------------------------------|
D-------------------------------|
A-------------------------------|
E-9etc.--5etc.--3etc.--1etc.----|

Intro 2 four times
Verse 1
Intro 2 twice
Verse 2
Intro 2 four times

Second guitar solo play the same thing except play something like this
G--------------------------------------------------|
D--------------------------------------------------|
A--------------------------------------------------|
E-9etc.-9-11-9--5etc.-5-7-5--3etc.-3-5-3--1ect.c---|
Play that until the end of the song


G-------------------------------------|
D-------------------------------------|
A---------5-4--------------------5-4--|
E-5h7-777--------5h7-7777-7777--------|

Have fun, please rate
Comments