Motorhead - King Of Kings Chords & Tabs

 

King Of Kings Chords & Tabs

Motorhead Chords & Tabs

Version: 3 Type: Tab

King Of Kings Tab

   
Ok everyone this is my first tab ever, only been playing 2 months, and im only 14 and 
now its 1:00 in the morning lol don't worry though i don't think i messed up, but don 't 
to picky if its not all fancy----
There is a part in this song that everyone is leaving out in there tabs and i think that 
its not in there its not badass..

here it is--

*timing and exact accuracy is not here so use what i give you and listen to the song and 
figure it out--its not very hard-*

Tuning- Db Ab Db Gb Bb Eb

Key:
(N)-Optional
(p)-Palm Mute
(~)-Vibrato
(s)-Slide

*note*(the 2 on the 3rd string (db) is optional also)

                                           |Repeat starts here
E|-----------------------------------------|--------------|
B|-----------------------------------------|--------------|
D|-(2)~~-----------------------------------|-2-2---2-2----|  X4
A|--2~~------------------------------------|-2-2---2-2----|
D|--2~~------------------------------------|-2-2---2-2----|
      "Behold the king..the king of kings"  (get on ya knees boy)
[ Tab from: http://www.guitartabs.cc/tabs/m/motorhead/king_of_kings_tab_ver_3.html ]
E|---------------------|---------------------|-------------------------------|
B|---------------------|---------------------|-------------------------------|
G|---------------------|---------------------|-------------------------------|
D|--5~-----------------|----2~---------------|---2-2---8s7s5---2-2--8s7s5----|
A|--5~-----------------|----2~---------------|---2-2---8s7s5---2-2--8s7s5----|
D|--5~-----------------|----2~---------------|---2-2---8s7s5---2-2--8s7s5----|
  Bow Down To the...... Bow down to the king..
E|---------------------|---------------------|-------------------------------|
B|---------------------|---------------------|-------------------------------|
G|---------------------|---------------------|-------------------------------|
D|--5~-----------------|----2~---------------|---2-2-- 5--5--5---------------|
A|--5~-----------------|----2~---------------|---2-2---5--5--5---------------|
D|--5~-----------------|----2~---------------|---2-2---5--5--5---------------|
  Bow Down To the...... Bow down to the king..

*This is the part here everyone keeps leaving out which is my favorite part*
(takes place near the end i think)

E|-----------------------------------------------------|
B|-----------------------------------------------------|
G|-----------------------------------------------------|
D|---2~------4--5-|-------5----4-|---2~---4--5---------|
A|---2~------4--5-|-------5----4-|---2~---4--5---------|
D|---2~------4--5-|-------5----4-|---2~---4--5---------|

(you can palm mute if you want)

E|---------------------|---------------------|-------------------------------|
B|---------------------|---------------------|-------------------------------|
G|---------------------|---------------------|-------------------------------|
D|--5~-----------------|----2~---------------|---2-2---8s7s5---2-2--8s7s5----|
A|--5~-----------------|----2~---------------|---2-2---8s7s5---2-2--8s7s5----|
D|--5~-----------------|----2~---------------|---2-2---8s7s5---2-2--8s7s5----|

 Bow Down To the...... Bow down to the king..

***If you take what i have given you and fiddle around with it youll master this song in 
time, if i have mistakenly made an error no worries if you listen to the song most of 
notes are just listed above***
(Please Rate)


ENJOY***