Motorhead - Iron Horse - Born To Lose Chords & Tabs

 

Iron Horse - Born To Lose Chords & Tabs

Motorhead Chords & Tabs

Version: 1 Type: Tab 0 ratings
1 star 2 stars 3 stars 4 stars 5 stars
comments

Iron Horse - Born To Lose Tab

   
Motorhead-"Iron Horse / Born to Lose"(Live no sleep 'til hammersmith)
tabbed by guillermo luppi:Lordaborto@mixmail.com

Standard Tuning (probably Eb when they play it live

Intro
e|-------------------------------------|
B|-------------------------------------|
G|--------5-7--7-7-55-------5-7--------|
D|----5-7-5-7--7-7-55---5-7-5-7--------|
A|-5-7---------------5-7---------------|
E|-------------------------------------|

Main Riff
e|-------------------------------------|
B|-------------------------------------|
G|--------5-7--7-7-55-------5-7--7575~-|
D|----5-7-5-7--7-7-55---5-7-5-7--7575~-|
A|-5-7---------------5-7---------------|
E|-------------------------------------|
[ Tab from: http://www.guitartabs.cc/tabs/m/motorhead/iron_horse_born_to_lose_tab.html ]
Verse
e|-------------------------------------|
B|-------------------------------------|
G|-----5-xx7-7-7-55----5-7---------75~-|
D|-7-xx5-xx7-7-7-557-xx5-7---------75~-|
A|-7-xx------------7-xx----------------|
E|-------------------------------------|

Pre-Chorus
e|--------------------------------------|
B|--------------------------------------|
G|-----5-xx7-7-7-55---------------------|
D|-7-xx5-xx7-7-7-557--777--777--777--77-|
A|-7-xx------------7--777--777--777--77-|
E|--------------------------------------|

Chorus (play this bit twice & the next bit once)
e|-------------------------------------|
B|-------------------------------------|
G|-------------------------------------|
D|-10-101010---------109-999-999-999-9-|
A|-8--8-8-8----------8-7-777-777-777-7-|
E|-------------------------------------|

e|--------------------------------|
B|--------------------------------|
G|--------------------------------|
D|-5-555-555-555-67-777-777-777-7-|
A|-3-333-333-333-45-555-555-555-5-|
E|--------------------------------|
Comments