Motorhead - Iron Fist Chords & Tabs

 

Iron Fist Chords & Tabs

Motorhead Chords & Tabs

Version: 2 Type: Tab 0 ratings
1 star 2 stars 3 stars 4 stars 5 stars
comments

Iron Fist Tab

   
Motorhead- Iron Fist


Tabbed by Rob (and Matt)



Tuning:  E A D G B E


Intro-

There are 2 different sections in the intro,
only the second section is repeated!

GTR I

E|------------------------|--------------------------| 
B|------------------------|--------------------------|
G|------------------------|--------------------------|
D|------------------------|--------------------------|
A|-5-7-7-7--5-7-7-7-------|-5-7-7-7-5-7-5-7-7-7------|
E|------------------------|--------------------------|
                                                     \
                                                      \
                                                       Repeat 5 Times
GTR II                                                /
                                                     /
E|------------------2-----|--------------------2-----|
B|------------------3---2-|--------------------3---2-|
G|------------------2-0-2-|--------------------2-0-2-|
D|------------------0-0-2-|--------------------0-0-2-|
A|----------------------0-|------------------------0-|
E|------------------------|--------------------------|


Verse-

GTR I


E|--------------------------------------------|
B|--------------------------------------------|
G|--------------------------------------------|
D|--------------------------------------------|
A|-57777-57777-57777-57777--57777-57777-------|
E|--------------------------------------------|
                                              \
                                               \
                                                Repeat 2 Times
GTR II                                         /
                                              /
E|--------------------------------------2-----|
B|--------------------------------------3---2-|
G|--------------------------------------2-0-2-|
D|--------------------------------------0-0-2-|
A|------------------------------------------0-|
E|--------------------------------------------|










Chorus-

E|----------------------------------------------------|
B|----------------------------------------------------|
G|-5-5-5---------7-7-7----------5-5-5---------5\7-7---|
D|-5-5-5--5-5-5--7-7-7--7-7-7---5-5-5--5-5-5--5\7-7-7-|
A|-3-3-3--5-5-5--5-5-5--7-7-7---3-3-3--5-5-5--3\5-5-7-|
E|--------3-3-3---------5-5-5----------3-3-3--------5-|


Break-

GTR I

E|-----------------------------------------------|
B|---------------------16b-----------------------|
G|--7999--7999--7999---15b----7999--7999---------|
D|-----------------------------------------------|
A|-----------------------------------------------|
E|-----------------------------------------------|

GTR II

E|-----------------------------------------2-----|
B|-----------------------------------------3---2-|
G|-----------------------------------------2-0-2-|
D|-----------------------------------------0-0-2-|
A|-5-7777-5-7777-5-7777------------------------0-|
E|-----------------------------------------------|


Verse-

GTR I

E|--------------------------------------------|
B|--------------------------------------------|
G|--------------------------------------------|
D|--------------------------------------------|
A|-57777-57777-57777-57777--57777-57777-------|
E|--------------------------------------------|
                                              \
                                               \
                                                Repeat 2 Times
GTR II                                         /
                                              /
E|--------------------------------------2-----|
B|--------------------------------------3---2-|
G|--------------------------------------2-0-2-|
D|--------------------------------------0-0-2-|
A|------------------------------------------0-|
E|--------------------------------------------|


Chorus-

E|----------------------------------------------------|
B|----------------------------------------------------|
G|-5-5-5---------7-7-7----------5-5-5---------5\7-7---|
D|-5-5-5--5-5-5--7-7-7--7-7-7---5-5-5--5-5-5--5\7-7-7-|
A|-3-3-3--5-5-5--5-5-5--7-7-7---3-3-3--5-5-5--3\5-5-7-|
E|--------3-3-3---------5-5-5----------3-3-3--------5-|


Solo 1-
[ Tab from: http://www.guitartabs.cc/tabs/m/motorhead/iron_fist_tab_ver_2.html ]
E|----------------------------------------------8-12p10p8----|
B|----------------7h8--------------------7h8-10-----------10-|
G|-7999-7999-7999----7-9--7999-7999-7999---------------------|
D|-----------------------------------------------------------|
A|-----------------------------------------------------------|
E|-----------------------------------------------------------|

E|-8---------------------------------------------------------|
B|---10-10-12b-10/-4-7-9-7h9p7-7-4---4-4-4p2h4---------------|
G|-------------------------------7(7)========--4-4-2b\----13^|
D|-----------------------------------------------------------|
A|-----------------------------------------------------------|
E|-----------------------------------------------------------|

E|-----------------------------------------------------------|
B|-----------------------------------------------------------|
G|-13^13p11--------10-\15^15^15^-13h15p13--13-----13^13^----|
D|-----------13h11p13------------------------15--15-----------|
A|-----------------------------------------------------------|
E|-----------------------------------------------------------|

E|----------------------------------|
B|----------------------------------|
G|-13^13^-13h15p13--11h13-13--------|
D|----------------12--------11\13---|
A|----------------------------------|
E|----------------------------------|


Break- (leads straight on from the solo)

GTR I

E|-----------------------------------------------|
B|---------------------16b-----------------------|
G|--7999--7999--7999---15b----7999--7999---------|
D|-----------------------------------------------|
A|-----------------------------------------------|
E|-----------------------------------------------|

GTR II

E|-----------------------------------------2-----|
B|-----------------------------------------3---2-|
G|-----------------------------------------2-0-2-|
D|-----------------------------------------0-0-2-|
A|-5-7777-5-7777-5-7777------------------------0-|
E|-----------------------------------------------|


Verse-

GTR I

E|--------------------------------------------|
B|--------------------------------------------|
G|--------------------------------------------|
D|--------------------------------------------|
A|-57777-57777-57777-57777--57777-57777-------|
E|--------------------------------------------|
                                              \
                                               \
                                                Repeat 2 Times
GTR II                                         /
                                              /
E|--------------------------------------2-----|
B|--------------------------------------3---2-|
G|--------------------------------------2-0-2-|
D|--------------------------------------0-0-2-|
A|------------------------------------------0-|
E|--------------------------------------------|


Chorus-

E|----------------------------------------------------|
B|----------------------------------------------------|
G|-5-5-5---------7-7-7----------5-5-5---------5\7-7---|
D|-5-5-5--5-5-5--7-7-7--7-7-7---5-5-5--5-5-5--5\7-7-7-|
A|-3-3-3--5-5-5--5-5-5--7-7-7---3-3-3--5-5-5--3\5-5-7-|
E|--------3-3-3---------5-5-5----------3-3-3--------5-|




Solo 2-

E|---------------------------------------------------------|
B|---------------------------------------------------------|
G|9===(9)--9-7-7---9^9^-9-7-7--13^13^13^-13-15-11--11------|
D|------------9------------9---------------------13--------|
A|---------------------------------------------------------|
E|---------------------------------------------------------|

E|-----------------------------------------------------------|
B|-----------------------------------------------------------|
G|15^15^15^-13h15p13--13----13^13^13^-13h15-11--11h13-13-----|
D|------------------15--15--------------------13--------11\13|
A|-----------------------------------------------------------|
E|-----------------------------------------------------------|


Outro-



E|----2-----|
B|----3---2-|
G|----2-0-2-|   Repeat 7 Times
D|----0-0-2-|   Slowly fade out
A|--------0-|
E|----------|


 KEY-

 B   bend
 ^   upstroke
 b\  bend up to next note
 b/  bend down to next note
 ==  let ring
 ()  release
 \   slide up
 /   slide down
 h   hammer on
 p   pull off
Comments