Motorhead - Iron Fist Chords & Tabs

 

Iron Fist Chords & Tabs

Motorhead Chords & Tabs

Version: 1 Type: Tab 0 ratings
1 star 2 stars 3 stars 4 stars 5 stars
comments

Iron Fist Tab

Motorhead-Iron FIST

tabbed by Guillermo Luppi (lordaborto@mixmail.com)

This is a cool song from the iron fist album, It wasnt very hard 
for me to tab this.I'm sure tghe second solo is right, but the half 
of the first is not complete, if you'd help me win the message board...
Here we go riff A
1|-------------------------3-2-------
2|-------------------------0-3-2-----
3|-------------------------0-2-2-----
4|-2-2-2-2-0-2-2-2-2-0-etc-0---2-----
5|-------------------------2---0-----
6|-------------------------3---------

Chorus:
1|--------------------------------------
2|--------------------------------------
3|---------------7-7-7--3-3-3-----------
4|-5-5-5--2-2-2--7-7-7--3-3-3-----------
5|-3-3-3--0-0-0--5-5-5--1-1-1-----------
6|--------------------------------------
And the when it says Devil's grip the Iron fist is like this (end of the chorus)
1|--9-9-9-7----------------------------
2|--9-9-9-7----------------------------
3|--7-7-7-5----------------------------
4|-------------------------------------
5|-------------------------------------
6|-------------------------------------

FILL 1
The guitar backing this fill goes like this:
4|-2-2-2-2-0-2-2-2-2-0etc-----------------
5|----------------------------------------
6|----------------------------------------
[ Tab from: http://www.guitartabs.cc/tabs/m/motorhead/iron_fist_tab.html ]
1|---------------------------------------------------------3-2----
2|---------------------------------8-----------------------0-3-2--
3|-7-9-9-9-9--7-9-9-9-9--7-9-9-9-9---7-9-9-9-9--7-9-9-9-9--0-2-2--
4|---------------------------------------------------------0---2--
5|---------------------------------------------------------2---0--
6|---------------------------------------------------------3------

Repeat Riff A
then comes the Chorus

And now the 1st SOLO

1|-----------------------------------------------------6-6-8-6-8-6-and if you'd
2|---------------------7-9-6---6-------------------7-9-------------read the mes
3|-7-9-9-9-9--repeatx3-------9---7-9-9-9-9repeatx3-----------------sage board and
4|-----------------------------------------------------------------help me
5|-----------------------------------------------------------------the solo would
6|-----------------------------------------------------------------have been complete.
  
AND NOW THE SECOND SOLO(COMPLETE)
1|---------------------------------------------------------------------------
2|---------------------------------------------------------------------------
3|-9^.--9-7--7--9^-9^-9-7--7----12^12^12^-12-10---10--15^15^15^-15-13--13----
4|----------9------------9----------------------12-------------------15--15--
5|---------------------------------------------------------------------------
6|---------------------------------------------------------------------------
                    when you finish in th 15, repeat the 12^ up to the 10 part           
..=Let ring

Outro:
1|--------------------------------------------------------------------------
2|--------------------------------------------------------------------------
3|-5-5----------------------------------------------------------------------
4|-5-5-7---repeat til fade--------------------------------------------------
5|-3-3-7--------------------------------------------------------------------
6|-----5--------------------------------------------------------------------
Comments