Motorhead - Iron Fist Chords & Tabs

 

Iron Fist Chords & Tabs

Motorhead Chords & Tabs

Version: 1 Type: Bass Tab 0 ratings
1 star 2 stars 3 stars 4 stars 5 stars
comments

Iron Fist Bass Tab

MOTORHEAD - IRON FIST 

OK I think it sounds preety good ...

Here it is    

Bass intro
G|----------------------|
D|----------------5---7-|
A|-5-7-777-5-7777---5---|
E|----------------------|

Verse
G|----------------------------------------------------------|
D|----------------------------------------------------------|
A|------------------------------------------------------5---|
E|-0-0-000-0-0000-0-0-000-0-00000-0-000-0-00000-0-000-3---5-|


Chorus
[ Tab from: http://www.guitartabs.cc/tabs/m/motorhead/iron_fist_btab.html ]
G|-------------------------------------|
D|-------------------------------------|    
A|----------3-3-3---------------5-5-5--|
E|-1-1-1--------------3-3-3------------|
You know me ...        You know me ...

G|-------------------------------------|
D|-------------------------------------|    
A|----------3-3-3----------5-----------|
E|-1-1-1--------------3-3--------------|
You know me ...        ...Iron fist


Or the chorus might go like this:


G|-------------------------------------|
D|-3-3-3-------------5-5-5-------------|    
A|----------3-3-3---------------5-5-5--|
E|-------------------------------------|
You know me ...        You know me ...


G|-------------------------------------|
D|-3-3-3-------------5-5---------------|    
A|----------3-3-3---------5------------|
E|-------------------------------------|
You know me ...      ...Iron fist
Comments