Motorhead - In The Name Of Tragedy Chords & Tabs

 

In The Name Of Tragedy Chords & Tabs

Motorhead Chords & Tabs

Version: 1 Type: Tab 0 ratings
1 star 2 stars 3 stars 4 stars 5 stars
comments

In The Name Of Tragedy Tab

   
Gtr I (Eb Ab Db Gb Ab Eb)


   Intro & Chorus
   Tempo=150
   4/4
    
||----------------------|-----------------|
||o---------------------|-----------------|
||----------------------|---------------0-|
||------2-(2)\---2---2\-|-----2\----0-----|
||o---------------------|---------1---1---|
||--0-0--------0---0----|-0-0-------------|


|---------------------|------------------||
|---------------------|-----------------o||
|---------------------|---------------2--||
|-----2-(2)\---2---2\-|-----2\----0------||
|---------------------|---------1---1---o||
|-0-0--------0---0----|-0-0--------------||

[ Tab from: http://www.guitartabs.cc/tabs/m/motorhead/in_the_name_of_tragedy_tab.html ]
   Verse 
    Eb5               Eb5       F5  F#5 Eb5                       F5F#5
||------------------|-----------------|-----------------|-----------------|
||o-----------------|-----------------|-----------------|-----------------|
||------------------|-----------------|-----------------|-----------------|
||------------------|-----------------|-----------------|-----------------|
||o-2-2-2-2-2-2-2-2-|-2-2-2-2-5-4-4s5-|-2-2-2-2-2-2-2-2-|-2-2-2-2-4-5-4---|
||--0-0-0-0-0-0-0-0-|-0-0-0-0-3-2-2s3-|-0-0-0-0-0-0-0-0-|-0-0-0-0-2-3-2---|


  Eb5                       F#F5
|-----------------|-----------------|
|-----------------|-----------------|
|-----------------|-----------------|
|-----------------|-----------------|
|-2-2-2-2-2-2-2-2-|-2-2-2-2-5-4-4s5-|
|-0-0-0-0-0-0-0-0-|-0-0-0-0-3-2-2s3-|


  Eb5               Eb5     A5G#G5     F5
                   6/4
|-----------------|-------------------------||
|-----------------|------------------------o||
|-----------------|-------------------------||
|-----------------|-------------------------||
|-2-2-2-2-2-2-2-2-|-2-2-2-2-8-7-6--6-5-4---o||
|-0-0-0-0-0-0-0-0-|-0-0-0-0-6-5-4--4-3-2----||
Comments