Motorhead - Hellraiser Chords & Tabs

 

Hellraiser Chords & Tabs

Motorhead Chords & Tabs

Version: 1 Type: Tab 0 ratings
1 star 2 stars 3 stars 4 stars 5 stars
comments

Hellraiser Tab

Motörhead-Hellraiser correction

guillermo Luppi-Lordaborto@mixmail.com

1|--12-10----10-10-------|-12-10----10-10/12-------|
2|--12-10-11-10-10--11---|-12-10-11-10-10/12-------|
3|--------11--------11---|-------11----------------|
4|-----------------------|-------------------------|  
5|-----------------------|-------------------------|
6|-----------------------|-------------------------|

i didn't have the guitar with me before, thats why I put 12 intead of 11 sorry

===========Motorhead-Hellraiser

by guillermo luppi. Lordaborto@mixmail.com

Bass Intro                       
|-0--------|-----------------|                                                
|----------|-----------------|                                                 
|----------|-----------------| 
|----------|-2-2-2-2-02-2-2-2| 
  vol swell-

And now (for you Jem penem)
1|--12-10----10-10-------|-12-10----10-10/12-------|
2|--12-10-12-10-10--12---|-12-10-12-10-10/12-------| or play it with 1 and 2
3|--------12--------12---|-------12----------------| strings, just as you like
4|-----------------------|-------------------------|  it the most
5|-----------------------|-------------------------|
6|-----------------------|-------------------------|

Verse
1|-------------------|
2|-------------------|
3|-------------------|
4|-------------------|
5|-5--5--5-5-5-5-5-5-|
6|-3--3--3-3-3-3-3-3-|
 
 Bass               
|-------------------|
|-------------------|
|-------------------|
|-22-22-2-2-2-2-2-2-|
[ Tab from: http://www.guitartabs.cc/tabs/m/motorhead/hellraiser_tab.html ]
Pre-Chorus (Bass does a slide up at the end)
1|------------------------------|--------------------|
2|------------------------------|--------------------|
3|--------5---------------------|-------5------------|
4|-3---3--5---------------------|-3---3-5--5-5-5-5-5-|
5|-3---3--3---------------------|-3---3-3--3-3-3-3-3-|
6|-1---1-------1-2-3-1-2-3-1-3--|-1---1--------------|
              

Chorus         x3                      x1
1|---------------|-----------------------|
2|---------------|-----------------------|
3|----3------5---|-----------------------|
4|-5--3---3--5---|-3-3-3-3-3-3-3-3-------|
5|-5--1---3--3---|-1-1-1-1-1-1-1-1-3--3--|
6|-3------1------|-----------------1--1--|
                   . . . . . . . . .  .

Solo Backing
1|------------------------------------------------|---------------|
2|------------------------------------------------|---------------|
3|------------------------------------------------|---------------|
4|------------------------------------------------|--3------5-3---|
5|-----------5-3-------------3-1~------------5-3--|--1--3---3-1--5|
6|-3-4-5-3-5-----5-1-2-3-1-3-----3-3-4-5-3-5-----5|-----1--------3|


               x3                                         x1
1|---------------|------------------------------------------|
2|---------------|------------------------------------------|
3|----3------5---|------------------------------------------|
4|-5--3---3--5---|-3-3-3-3-3-3-3-3-----3---5-3--------------|
5|-5--1---3--3---|-1-1-1-1-1-1-1-1-----1-3-3-1-5------------|
6|-3------1------|-----------------------1-----3------------|
Comments