Motorhead - Hardcore Chords & Tabs

 

Hardcore Chords & Tabs

Motorhead Chords & Tabs

Version: 1 Type: Bass Tab 0 ratings
1 star 2 stars 3 stars 4 stars 5 stars
comments

Hardcore Bass Tab

standard tuning
crazy ass song, shit easy to play though... once you get the hang of it
[ Tab from: http://www.guitartabs.cc/tabs/m/motorhead/hardcore_btab.html ]
intro
|------------------------------------------------------------|
|------------------------------------------------------------|
|---------0-0--------------0-0------------0-0-----2--2--0----|
|-2--0--2-----0----2--0--2-----0--2--0--2-----0--------------|
verse                                    _____
|----------------------------------------|    |
|----------------------------------------|    |
|---------------------------------0-0----|    |
|-0-0-2---0-0-2---0-0-2---2--0--2-----0--|    |____x2
                                              |
|---------------------------------|           |
|---------------------------------|           |
|-------------------------2--2--0-|___________|
|-0-0-2---0-0-2---0-0-2-----------|
pre-chorus
|-----------------------------------------------------------------------|
|-----------------------------------------------------------------------|
|-2--0--2--------------2--0--2--------------2--0--2--------------2--0--2|
|-----------------------------------------------------------------------|

|---------------------------------------------------------------|
|---------------------------------------------------------------|
|---------0-0--------------0-0------------0-0------------0-0----|
|-2--0--2-----0----2--0--2-----0--2--0--2-----0--2--0--2-----0--|

|---------------------------------------------------------------|
|---------------------------------------------------------------|
|--2--2--0---------------2--2--0--------------2--2--0-----------|x whatever
|---------------------------------------------------------------|
chorus (not sure on this)
|------------------------------------------------------------------|
|------------------------------------------------------------------|
|------------------------------------------------------2--2--0-----|
|---2---0-------------------2---0--------------2-------------------|

hardcore!
tabbed by dustin i.e "lord hellfire"
Comments