Motorhead - Game Chords & Tabs

 

Game Chords & Tabs

Motorhead Chords & Tabs

Version: 2 Type: Tab 0 ratings
1 star 2 stars 3 stars 4 stars 5 stars
comments

Game Tab

Band: Motorhead
Song: The Game
Tab by: Spike


Hey, this is a cool song, I was listenin' to it
and I was already playing, and i just picked it up...
I haven't described the parts very well, so DO listen
to the song and you'll get it easy...if you can't e-mail
me I'll be happy to help...Turn your amp up!!
Here it is...


 Intro...
E|---------------------------------------]
B|---------------------------------------]
G|---------------------------------------]
D|-1--------1--------1-1--------1--------]
A|-1--------1--------1-1--------1--------]
D|-1--------1--------1-1--------1--------]

[ Tab from: http://www.guitartabs.cc/tabs/m/motorhead/game_tab_ver_2.html ]
  
E|---------------------------------------------]
B|-------------------------------6h7-6--6h7-6--]
G|---------------------------------------------]
D|-1-1-1--1-1-1----1-1-1--1-1-1----------------]
A|-1-1-1--1-1-1----1-1-1--1-1-1----------------]
D|-1-1-1--1-1-1----1-1-1--1-1-1----------------]



E|----------------------------------------]
B|----------------------------------------]
G|----------------------------------------]
D|-1-1-1--1-1-1----1-1-1--1-1-1--1/4------]
A|-1-1-1--1-1-1----1-1-1--1-1-1--1/4------]
D|-1-1-1--1-1-1----1-1-1--1-1-1--1/4------]


 First verse, play this loads of times...
E|---------------------------------------]
B|---------------------------------------]
G|---------------------------------------]
D|-1-1-4-3---1-1-9-8---------------------]
A|-1-1-4-3---1-1-9-8---------------------]
D|-1-1-4-3---1-1-9-8---------------------]


 Then this when it gets slower after the above...
E|----------------------------------------------]
B|----------------------------------------------]
G|----------------------------------------------]
D|-1--4--6----1--6--4---------------------------]
A|-1--4--6----1--6--4-
Comments