Motorhead - Dont Let Daddy Kiss Me Chords & Tabs

 

Dont Let Daddy Kiss Me Chords & Tabs

Motorhead Chords & Tabs

Version: 1 Type: Tab 0 ratings
1 star 2 stars 3 stars 4 stars 5 stars
comments

Dont Let Daddy Kiss Me Tab

   
Motörhead-"Don't let daddy kiss me"
tabbed by guilermoluppi:Lordaborto@mixmail.com

Tune down to Eb.

Chords used:  

   Am   Em   C    G    D   F#7 
1|-0----0----0----0----2--------|
2|-1----0----1----1----3--------|
3|-0----0----0----0----2--------|
4|-2----2----2----2----0----4---|
5|-0----2----3----3---------4---|
6|------0---------3---------2---|

Verse 1:

Little girl sleeping in dreams of peace, 
Mommy's been gone a long time,
Daddy comes home and she still sleeps, 
Waiting for the world's worst crime.

    Am
And he comes up the stairs like he always does,
                            Em
And he never turns on the light,
    Am
And she's wide awake, scared to death,
    C
She smells his lust and she smells his sweat
    Am
Curled in a ball she holds her breath
G
Praying to a God that she's never met


Fill 1 (12 string guitar)
1|------------------|
2|------------------|
3|------------------|
4|-----0-2-----0-2--|
5|-0-2-----0-2------|
6|------------------|

Chorus:
Em        D       Am
Don't let daddy kiss me,
Em        D       C	       
Don't let daddy kiss me
	Em
Good night

Verse 2:
Em
Little girl lies by her daddy's side
Em
And she listens to him breathe
Em    
She knows there's something awful wrong
Em    
That she's far too young to see
Em      Am
And she knows she can't tell anyone
			   Em
She's so full of guilt and shame,
Am
And if she tells she'll be all alone
       C
They'd steal her daddy and they'd steal her home
    Am
And it's not so bad when daddy leaves her alone
C
Praying to her God with his heart of stone


Em        D       Am
Don't let daddy kiss me,
Em        D       C	       
Don't let daddy kiss me
	Em
Good night

Fill 2
1|-------------------------|
2|-------------------------|
3|-12^13-12^13-12^13-12^13-|
4|-------------------------|
5|-------------------------|
6|-------------------------|

Bridge
   G7            B7        D7                   A7
1|------------------------------------------------|
2|------------------------------------------------|
3|---------------4---4-4---7--------7-------------|
4|--5------------4---4-4---7--------7-----------7-|
5|--5------------2---2-2---5--------5-----------7-|
6|--3-------------------------------------------5-|
   Why, tell me why, the worst crime in the world
[ Tab from: http://www.guitartabs.cc/tabs/m/motorhead/dont_let_daddy_kiss_me_tab.html ]
Solo (this  is pretty easy to play)
   F#7                                           E7               
1|-----------------------------17-17-17-17-14------------------|
2|-17^--17^--17^---15-17-14-15----------------17^---15-17-15\6-|
3|-------------------------------------------------------------|
4|-------------------------------------------------------------|
5|-------------------------------------------------------------|
6|-------------------------------------------------------------|

            D7                             A7                        
1|-----------------------------------------------------------------------|
2|-----7-10^----10^--7---------------------------------------------------|
3|-6-7-----------------7-------------------7-----9^--7-9-7-9-9^--7-9^--7-|
4|-----------------------9-7-9-7-------------9-7-------------------------|
5|-------------------------------9-7-5-7-9-------------------------------|
6|-----------------------------------------------------------------------|

1|------------------------|--------------------------|
2|---(with tremolo bar)---|--------------------------|
3|-9^-\/\/\/\-------------|-7-9-7-9-9^----7^---------|
4|------------------------|-------------------9-7----|
5|------------------------|-----------------------9\-|
6|------------------------|--------------------------|

Fill 3	       Fill 4              
1|-----------|----------------------------------12------------------|
2|-0-1-0-1-0-|--10^----10^----8-10--------------12--10^-------------|
3|-----------|-------------------------11-12----12-------7-9--------|
4|-----------|-------------------------------13--------------7-9----|
5|-----------|---------------------------------------------------7--|
6|-----------|------------------------------------------------------|

Verse 3
Em
And daddy lies by his daughter's side, 
    Em
And he sleeps both deep and well
   Em(upstroke)
No nightmares come to him tonight, 
Em
Though his daughter lives in hell

Fill 5	      
1|-------12-12-|
2|----15-------|
3|-12----------|
4|-------------|
5|-------------|
6|-------------|

        Am
For his seed is sown where it should not be
                                Em
And the beast in his mind don't care
        Am
And the only sounds are the tears that fall

Fill 6	      
1|-10/12-12\10-|----------|
2|-10/12-12\10-|----------|
3|-------------|-------12-|
4|-------------|-9^--7----|
5|-------------|----------|
6|-------------|----------|

C
Little girl turns her face to the wall
Am
She knows that no one hears her call,
C
But it seems like God hears nothing at all

Fill 7
1|-10--10-10-|
2|----8------|
3|-----------|
4|-----------|
5|-----------|
6|-----------|

Em        D       Am
Don't let daddy kiss me,
Em        D       Am
Don't let daddy kiss me,
Em        D       C	       
Don't let daddy kiss me
(fill 2)	
           Good night
Oh dear
Comments