Motorhead - Deaf Forever Chords & Tabs

 

Deaf Forever Chords & Tabs

Motorhead Chords & Tabs

Version: 1 Type: Tab 0 ratings
1 star 2 stars 3 stars 4 stars 5 stars
comments

Deaf Forever Tab

MOTORHEAD:"Deaf Forever"
by guillermo luppi (Lordaborto@mixmail.com)

Main Riff:
1|------------------------------------------
2|------------------------------------------
3|------------------------------------------
4|------------------------------------------
5|------------------------------------------
6|-0-2-2-2-2-0-2-2-2-2-5-2-2-2-2-0-2-2-2-0-0

Chorus
1|-------------------|----------------------------------------------
2|-------------------|----------------------------------------------
3|----------3--------|------4----5----7----55555-77777-55555-77777--
4|-3----5---3---4----|-3----4----5----7----55555-77777-55555-77777--
5|-3----5---1---4----|-3----2----3----5----33333-55555-33333-55555--
6|-1----3-------2----|-1--------------------------------------------
[ Tab from: http://www.guitartabs.cc/tabs/m/motorhead/deaf_forever_tab.html ]
Solo Backing
1|---------------------------------------------------------
2|---------------------------------------------------------
3|--------------------------------7.-----7.----------------
4|--------------------------------7.-----9.----------------
5|-0-2-2-2-2-----------repeat-----5.-----9.----------------    .=let ring
6|-----------0-2-2-2-2-repeat------------------------------

                                                                         
Stoneface dog, swirling fog, gates open on the dark dark night 
Standing stone, skull and bone, dead witness to an unseen fight 
Beat the drum, beat the drum, beat forever on the endless march 
Stricken dumb, cut and run, someone is screaming and the sky is dark

Chrous
Sword and shield, bone and steel, rictus grin
Deaf forever to the battles din

March or croak, flame and smoke, burn forever in eternal pain 
Charge and fall, bugle call, bone splinter in the driving rain 
Horses scream, Viking dream, drowned heroes in a lake of blood 
Armoured fist, severed wrist, broken spears in a sea of mud

Chorus

Mother earth, mother earth enfold you in her cold embrace Sinking down, 
killing ground, worm crawling on your cold white face Win or lose, 
nought to choose, all men are equal when their memory fades No one knows, 
friends or foes, if Valhalla lies beyond the grave

====
Comments