Motorhead - Dead And Gone Chords & Tabs

 

Dead And Gone Chords & Tabs

Motorhead Chords & Tabs

Version: 1 Type: Tab 0 ratings
1 star 2 stars 3 stars 4 stars 5 stars
comments

Dead And Gone Tab

Motörhead-"Dead and gone"
tabbed by guillermoluppi: Lordaborto@mixmail.com
Tune down to Eb (down half a step)

Verse - Clean tone  Verse Ending
1|-----------------|-----------------|
2|-----1-------1---|-----1-----1-----|
3|---2-------2-----|---2-----2-----2-|
4|-2-----2-0-----0-|-2-----2-----2---|
5|-----------------|-----------------|
6|-----------------|-----------------|
This is played about 11 times plus the ending each verse (4 bar intro, 8 bars
under vocals)

Pre-Chorus 1 (after 1st verse) - Clean tone
         x4                                x1        x4
1|---------|---------------------------------|---------|
2|-----1---|-----1-------1-------1-----1-----|-----1---|
3|---2-----|---2-------2-------2-----2-----2-|---2-----|
4|-3-----3-|-2-----2-0-----0-2-----2-----2---|-3-----3-|
5|---------|---------------------------------|---------|
6|---------|---------------------------------|---------|

cont..                                           x1
1|-------------------------------------------------|
2|-----1-------1-------1-----1---------1-----1-----|
3|---2-------2-------2-----2-----2---2-----2-----2-|
4|-2-----2-2-----2-0-----0-----0---0-----0-----0---|
5|-------------------------------------------------|
6|-------------------------------------------------|
Go straight to the second verse after this.
[ Tab from: http://www.guitartabs.cc/tabs/m/motorhead/dead_and_gone_tab.html ]
Pre-Chorus 2 (after 2nd & 3rd verses) - Clean tone
         x4                                x1        x4                     x1
1|---------|---------------------------------|---------|----------------------|
2|-----1---|-----1-------1-------1-----1-----|-----1---|-----1-------1---1----|
3|---2-----|---2-------2-------2-----2-----2-|---2-----|---2-------2-----2----|
4|-3-----3-|-2-----2-0-----0-2-----2-----2---|-3-----3-|-2-----2-2-----2-2----|
5|---------|---------------------------------|---------|----------------------|
6|---------|---------------------------------|---------|----------------------|

Chorus - Distorted tone                      Main Ending
1|------------------------------------------|-----------------|
2|------------------------------------------|-----------------|
3|------7--7-7-------5---------------7--7-7-|-----------------|
4|-7--7-7--7-7--7--7-5---------7--7--7--7-7-|-----------------|
5|-7--7-5--5-5--7--7-3--55-5-5-7--7--5--5-5-|-3-3-3-3-3-3-5-5-|
6|-5--5---------5--5----33-3-3-5--5---------|-1-1-1-1-1-1-3-3-|

Chorus Ending A (last bar of 1st Chorus)    Chorus Ending B
1|-----------------------------------------|-----------------|
2|-----------------------------------------|-----------------|
3|-----------------------------------------|-----------------|
4|---------------------------------7-------|-----------------|
5|-3-3-3-3-3-3-3-3-3-3-3-3-3-3-3-3-7-------|-3-3-3-3-3-3-3-3-|
6|-1-1-1-1-1-1-1-1-1-1-1-1-1-1-1-1-5-------|-1-1-1-1-1-1-1-1-|

Chorus End B is the last bar of the 2nd Chorus (the 4th bar of the second
chorus) After playing it go straight into the coda which is the Chorus riff
played at least another 4 times and fading out, with the Main Ending used each
time.
Comments