Motorhead - Damage Case Chords & Tabs

 

Damage Case Chords & Tabs

Motorhead Chords & Tabs

Version: 1 Type: Bass Tab

Damage Case Bass Tab

This can and normally should be played in Eb but it can very eaily be played in Normal Tune

Intro
G|--------------------------------|
D|--------------6---------------6-|
A|6/9-6/9-6/9-6---6/9-6/9-6/9-6---|
E|--------------------------------|

Verse Riff

G|------------------------|
D|--------------------4-4-|
A|6-6p4h6-6p4h6-6p4h6-----|
E|------------------------|

Chorus

G|----------------|
D|----------------|
A|1-1-1-1-----4-4-|
E|--------2-2-----|

Chorus continuation

G|----------------|
D|----------------|
A|1-1-1-1----4-4-6|
E|--------2-2-----|

Post Chorus

G|-------------------------------|
D|-------------------------------|
A|----------------6/4-6/4-6------|
E|6-6-6-6-4-4-4-4-----------4/5/6|

Riff
[ Tab from: http://www.guitartabs.cc/tabs/m/motorhead/damage_case_btab.html ]
G|-----------------------------------|
D|-----------------------------------|
A|6-4-------4h6p4---4----------------|
E|----6-4-6-------6---6-6-6-6-4-4-4-4|

Verse 3

G|------------------------|
D|--------------------6-6-|
A|8-8p6h8-8p6h8-8p6h8-----|
E|------------------------|

Chorus 3

G|----------------|
D|----------------|
A|3-3-3-3-----6-6-|
E|--------4-4-----|

Chorus continuation

G|----------------|
D|----------------|
A|3-3-3-3----6-6-8|
E|--------4-4-----|


Post Chorus

G|-------------------------------|
D|-------------------------------|
A|----------------8/6-8/6-8------|
E|8-8-8-8-6-6-6-6-----------6/7/8|

Order:

Intro

Verse X8

Chorus X3

Continuation

Post Chorus

Verse X4

Chorus X3

Continuation

Post Chorus

Verse X8 (Under Solo)

Chorus X3

Continuation

Riff

Verse 3 X5

Chorus 3 X3

Continuation 3

Post Chorus 3

Verse 3 Fade out