Motorhead - Born To Raise Hell Chords & Tabs

 

Born To Raise Hell Chords & Tabs

Motorhead Chords & Tabs

Version: 2 Type: Tab 0 ratings
1 star 2 stars 3 stars 4 stars 5 stars
comments

Born To Raise Hell Tab

---------------------------------|
---------------------------------|
---------------------------------|
------------6-6-6-6-6-6-6-6------|
------------6-6-6-6-6-6-6-6------|
-2-1-0~~~---4-4-4-4-4-4-4-4------|
ba-ba-ba

---------------------------------|
---------------------------------|
-------6-6-6---------------------|     <~~~hit each note 4 times
-6-6-6-6-6-6---------------------|
-6-6-6-4-4-4---------------------|
-4-4-4---------------------------|
pm...........
listen up here, ill make it quite clear
im gonne put some booogey in your ear
shake and bop dont you stop
dance like a maniac until you drop
i dont mind, i dont mind, i can run a razor right down your spine

---------------------------------|
---------------------------------|
---------------------------------|
---------------------------------|
-2-2-2-2-2-2-2-2-2---------------|
-0-0-0-0-0-0-0-0-0---------------|
pm.................
what are you waiting for?
what do you think you were created for
show us you care, show us you dare
you dont know what happened couse you werent there

--------------------------------------------------------------|
--------------------------------------------------------------|
-------------------6-6-6-6-6-6-6------------------------------|
-6-6-6-6--6-6-6/9--6-6-6-6-6-6-6-4-4-4-4-4-2(9)---------------|
-6-6-6-6--6-6-6/9--4-4-4-4-4-4-4-4-4-4-4-4-2------------------|(9)- (every other time you slide
-4-4-4-4--4-4-4/7----------------2-2-2-2-2-0(7)- up to 7-9-9)-|
born to raise hell, born to raise hell
we know how to do it and we do it real well
voodoo mans gonna cast my spell
born to raise hell,born to raise hell
play the guitar like your ringin a bell

---------------------------------|
---------------------------------|
---------------------------------|
---------------------------------|
-2-2-2-2-2-2-2-2-2-2-2-----------|
-0-0-0-0-0-0-0-0-0-0-0-----------|
pm....................
take it or leave it-

---------------------------------|
---------------------------------|
---------------------------------|
---------------------------------|
-6-6-6-6-6-6-6-6-6-6-6-6---------|
-4-4-4-4-4-4-4-4-4-4-4-4---------|

[ Tab from: http://www.guitartabs.cc/tabs/m/motorhead/born_to_raise_hell_tab_ver_2.html ]
---------------------------------|
---------------------------------|
-------6-6-6---------------------|     <~~~hit each note 4 times
-6-6-6-6-6-6---------------------|
-6-6-6-4-4-4---------------------|
-4-4-4---------------------------|
pm...........
goin for broke, rock till you choke
it dont matter if you drink or smoke
speak through the beat, get up on your feet
sweatin like a hound dog white as a sheet
dont you be scared dont you be scared
everybodys terrified no it dont seem fair

---------------------------------|
---------------------------------|
---------------------------------|
---------------------------------|
-2-2-2-2-2-2-2-2-2---------------|
-0-0-0-0-0-0-0-0-0---------------|
pm.................
what are you waiting for?
what do you think you were created for
outa your seat, blind in the heat
?do the nasty boogey mama? stamp your feet


--------------------------------------------------------------|
--------------------------------------------------------------|
-------------------6-6-6-6-6-6-6------------------------------|
-6-6-6-6--6-6-6/9--6-6-6-6-6-6-6-4-4-4-4-4-2(9)---------------|
-6-6-6-6--6-6-6/9--4-4-4-4-4-4-4-4-4-4-4-4-2------------------|(9)- (every other time you slide
-4-4-4-4--4-4-4/7----------------2-2-2-2-2-0(7)- up to 7-9-9)-|
born to raise hell, born to raise hell
we know how to do it and we do it real well
voodoo mans gonna cast my spell
born to raise hell,born to raise hell
play the guitar like your ringin a bell

----------------------------------------------|
----------------------------------------------|
-------------------------------6-6-6-6-6------|
-6-6-6-6-6-4-4-4-4-4-9-9-9-9-9-6-6-6-6-6------|
-6-6-6-6-6-4-4-4-4-4-9-9-9-9-9-4-4-4-4-4------|
-4-4-4-4-4-2-2-2-2-2-7-7-7-7-7----------------|
>while the solo is goin<
>when the solo ends, the rythm changes<
get it back get it back (ahhh yea)

-----------------------------------|
-----------------------------------|
-----------------------------------|
-2-2-2-2-2-2-2-2-2-2-2-------------|
-2-2-2-2-2-2-2-2-2-2-2-------------|
-0-0-0-0-0-0-0-0-0-0-0-------------|
                      -stop-

--------------------------------------------------------------|
--------------------------------------------------------------|
-------------------6-6-6-6-6-6-6------------------------------|
-6-6-6-6--6-6-6/9--6-6-6-6-6-6-6-4-4-4-4-4-2(9)---------------|
-6-6-6-6--6-6-6/9--4-4-4-4-4-4-4-4-4-4-4-4-2------------------|(9)- (every other time you slide
-4-4-4-4--4-4-4/7----------------2-2-2-2-2-0(7)- up to 7-9-9)-|
born to raise hell, born to raise hell
we know how to do it and we do it real well
voodoo mans gonna cast my spell
born to raise hell,born to raise hell
play the guitar like your ringin a bell
hooray
yeah
abababmmaba
yea!
comon
uh
ahhhhh!
motorhead foo
THATS RIGHT!
comawn
Comments