Motorhead - Bomber Chords & Tabs

 

Bomber Chords & Tabs

Motorhead Chords & Tabs

Version: 2 Type: Tab 0 ratings
1 star 2 stars 3 stars 4 stars 5 stars
comments

Bomber Tab

   
Artist: Motorhead
Song: Bomber
Album: Bomber
Tabbed By: Menno Roymans (the doctor)

Tuning: Eb

Riff one:
 Bb		    Ab
------------------------------------------|
------------------------------------------|
----9-7~----9-7~------7-5~----7-5~--------| play 4 times
-9-99----9-99------7-77----7-77-----------|
-9-9-----9-9-------7-7-----7-7------------|
-7-------7---------5-------5--------------|


Riff two:
 Eb
------------|
------------|
-9----------|
-9--strum---|
-7----------|
-0----------|

[ Tab from: http://www.guitartabs.cc/tabs/m/motorhead/bomber_tab_ver_2.html ]
Riff three:
 Bb
----------------        --------- |
----------------        --------- |
----9-7~----9-7~ play 4 times  -- |
-9-99----9-99---               -- |
-9-9-----9-9----               -- |
-7-------7------               -- |
				{ play 2 times
 Ab				|
----------------       ----------- |
----------------       ----------- |
----7-5~----7-5~ play 4 times   -- |
-7-77----7-77---       ----------- |
-7-7-----7-7----       ----------- |
-5-------5------       ----------- |


Riff four:
 Eb   Db   Eb   Cb Db
------------------------|
------------------------|
-9----7----9----5--7----|
-9----7----9----5--7----|
-7----5----7----3--5----|
------------------------|

then play:
2x Riff three
1x Riff four

Under solo play:
2x Riff one
2x Eb - Db
1x Riff 4

then play:
2x Riff three
1x Riff four

play Riff one 'till fade.

That's it, for comments mail to mennodeman@hotmai.com
Comments