Motorhead - Bomber Chords & Tabs

 

Bomber Chords & Tabs

Motorhead Chords & Tabs

Version: 1 Type: Tab 0 ratings
1 star 2 stars 3 stars 4 stars 5 stars
comments

Bomber Tab

 Motorhead - Bomber
 
 Standard tuning  Very heavy distortion

 h=hammer on
 p.o=pull off

 Intro-repeat a few times
 e----------------------------------------------------------------
 b----------------------------------------------------------------
 g---------6h7p.o6--------6h7p.o6-----------5h6p.o5-------5h6p.o5-
 d----------------------------------------------------------------
 a-------6-------------6----------------4---------------4---------
 E---6-6-----------6-6--------------4-4-------------4-4-----------
[ Tab from: http://www.guitartabs.cc/tabs/m/motorhead/bomber_tab.html ]
 Verses
 e----------------------------------------------------------------
 b----------------------------------------------------------------
 g---------6h7p.o6-------6h7p.o6---------6h7p.o6---------6h7p.o6--
 d----------------------------------------------------------------
 a-------6-------------6---------------6---------------6----------
 E---6-6-----------6-6-------------6-6-------------6-6------------

 e----------------------------------------------------------------
 b----------------------------------------------------------------
 g---------4h5p.o4-------4h5p.o4---------4h5p.o4--------4h5p.o4---
 d----------------------------------------------------------------
 a-------4-------------4---------------4--------------4-----------
 E---4-4-----------4-4-------------4-4-------------4-4------------

 Chorus
 e----------------------------------------------------------------
 b----------------------------------------------------------------
 g----------------------------------------------------------------
 d----------------------------------------------------------------
 a---8888888-6666666-13-13-13-13-13-13--11-11-11-11-11-11-9999999-
 E---6666666-4444444-11-11-11-11-11-11--9--9--9--9--9--9--7777777-
Comments