Motorhead - Bite The Bullet Chords & Tabs

 

Motorhead Chords & Tabs

Version: 1 Type: Tab 0 ratings
1 star 2 stars 3 stars 4 stars 5 stars
comments

Bite The Bullet Tab

   
Motorhead-"Bite the bullet"
tabbed by guillermoluppi:Lordaborto@mixmail.com
Tune down to Eb.

Intro (2nd time add vibrato to last note)
1|---------------------|
2|---------------------|
3|---------------------|
4|---------------------|
5|-5-4-3-2--5-4-3-2----|
6|------------------3--|

Fill
 
1|--------------------------------------------------|
2|--------------------------------------------------|
3|-2-----------2-----------2-----------2------------|
4|-2-----------2-----------2-----------2------------|
5|-0-----------0-----------0-----------0------------|
6|--------------------------------------------------|
[ Tab from: http://www.guitartabs.cc/tabs/m/motorhead/bite_the_bullet_tab.html ]
Riff A (x3)
1|-----------------------------------|
2|-----------------------------------|
3|-----------------------------------|
4|-7-7-77777-7-77777-7-77777-7-10-10-|
5|-5-5-55555-5-55555-5-55555-5-8--8--|
6|-----------------------------------|

Riff B
1|--------------------------------|------|
2|--------------------------------|------|
3|--------------------------------|-Play-|
4|-7-7-77777-7-77777-7-7777-------|-Fill-|
5|-5-5-55555-5-55555-5-55555432---|------|
6|------------------------------3-|------|

Solo Backing (play each bar 4 times)
1|------------------|------------------|-------|---Play---|
2|------------------|------------------|-------|----The---|
3|-6-6-66666-6-6666-|------------------|--Play-|-Chase-is-|
4|-4-4-44444-4-4444-|-7-7-77777-7-7777-|-Intro-|--Better--|
5|------------------|-5-5-55555-5-5555-|-------|-than-the-|
6|------------------|------------------|-------|---Catch--|
Comments