Motorhead - Ace Of Spades Chords & Tabs

 

Ace Of Spades Chords & Tabs

Motorhead Chords & Tabs

Version: 3 Type: Tab 0 ratings
1 star 2 stars 3 stars 4 stars 5 stars
comments

Ace Of Spades Tab

   
##################################################################################
# This file is the author's own work and represents their interpretation of the  #
# song. You may only use this file for private study, scholarship, or research.  #
##################################################################################


                                 Motorhead
                   from the album "Ace of Spades"  1980

Tabbed by baldy. Any corrections  comments etc to good_fellow_baldo@hotmail.com
 
This ones taken from TG#77 so its a 100% authentic

tempo = 140 (hey its what the mag said)

INTRO: - bass arr. for guitar              play 4x
|------------------------------------------------|
|------------------------------------------------|
|------------------------------------------------|
|--2----2--2----2--2--2--2----2---2---2----0-----|
|------------------------------------------------|
|------------------------------------------------|

guitar
RIFF A:                            x4
|------------------------------------|
|------------------------------------|
|------------------------------------|
|---------------------9--x--8--x--7--|
|------------------------------------|
|--0--0---0--0--0--0-----------------|

VERSE 1:    
      
      G5
|--------------------------|----------------------------|
|--------------------------|----------------------------|
|--------------------------|----------------------------|
|-----5--------------------|----5-----------------------|
|-----5--------------------|----5-----------------------|
|-----3--------------------|----3-----------------------|
                                       
    
      G5
|--------------------------|----------------------------|
|--------------------------|----------------------------|
|--------------------------|----------------------------|
|-----5--------------------|-----5---5---5----5---------|
|-----5--------------------|-----5---5---5----5---------|
|-----3--------------------|-----3---3---3----3---------|

RIFF B:
     BU    BD                    BU     BD        slide
|----------------------------|-------------------------|
|--14(15)--(14)--12--14--12--|--14(15)--(14)--12-------|
|--14(16)--(14)--12--14--12--|--14(16)--(14)--12-------|
|----------------------------|--------------------14\--|
|----------------------------|-------------------------|
|----------------------------|-------------------------|

     BU    BD                    BU     BD       slide      
|----------------------------|-------------------------|
|--14(15)--(14)--12--14--12--|--14(15)--(14)--12-------|
|--14(15)--(14)--12--14--12--|--14(15)--(14)--12-------|
|----------------------------|--------------------14\--|
|----------------------------|-------------------------|
|----------------------------|-------------------------|
                           

    D5                       C5
|------------------------|---------------------------------|
|------------------------|---------------------------------|
|---7--------------------|---5-----------------------------|
|---7--------------------|---5-----------------------------|
|---5--------------------|---3-----------------------------|
|------------------------|---------------------------------|

     BU    BD                    BU     BD        slide
|----------------------------|-------------------------|
|--14(15)--(14)--12--14--12--|--14(15)--(14)--12-------|
|--14(16)--(14)--12--14--12--|--14(16)--(14)--12-------|
|----------------------------|--------------------14\--|
|----------------------------|-------------------------|
|----------------------------|-------------------------|
         
   
   D5                              C5
|------------------------|-------------------------------------------|
|------------------------|-------------------------------------------|
|--7---------------------|---------5---------------------------------|
|--7---------------------|---------5---------------------------------|
|--5---------------------|---------3---------------------------------|
|------------------------|-------------------------------------------|

CHORUS:
   Ace of Spades                  the   Ace of Spades          
|------------------------------------|---------------------------------|
|------------------------------------|---------------------------------|
|------------------------------------|---------------------------------|
|---------------------9--x--8--x--7--|---------------------9--x--8--7--|
|------------------------------------|---------------------------------|
|--0--0---0--0--0--0-----------------|--0--0---0--0--0--0--------------|

RIFF A                             x2
|------------------------------------|
|------------------------------------|
|------------------------------------|
|---------------------9--x--8--x--7--|
|------------------------------------|
|--0--0---0--0--0--0-----------------|

VERSE 2:
   
   G5
|--------------------------|----------------------------|
|--------------------------|----------------------------|
|--------------------------|----------------------------|
|--5-----------------------|----5-----------------------|
|--5-----------------------|----5-----------------------|
|--3-----------------------|----3-----------------------|

   
   G5
|-----------------------|----------------------------|
|-----------------------|----------------------------|
|-----------------------|----------------------------|
|--5--------------------|-----5---5---5----5---------|
|--5--------------------|-----5---5---5----5---------|
|--3--------------------|-----3---3---3----3---------|

RIFF B:
     BU    BD                    BU     BD        slide
|----------------------------|-------------------------|
|--14(15)--(14)--12--14--12--|--14(15)--(14)--12-------|
|--14(16)--(14)--12--14--12--|--14(16)--(14)--12-------|
|----------------------------|--------------------14\--|
|----------------------------|-------------------------|
|----------------------------|-------------------------|

     BU    BD                    BU     BD       slide      
|----------------------------|-------------------------|
|--14(15)--(14)--12--14--12--|--14(15)--(14)--12-------|
|--14(15)--(14)--12--14--12--|--14(15)--(14)--12-------|
|----------------------------|--------------------14\--|
|----------------------------|-------------------------|
|----------------------------|-------------------------|

    
    D5                       C5
|------------------------|---------------------------------|
|------------------------|---------------------------------|
|---7--------------------|---5-----------------------------|
|---7--------------------|---5-----------------------------|
|---5--------------------|---3-----------------------------|
|------------------------|---------------------------------|

     BU    BD                    BU     BD        slide
|----------------------------|-------------------------|
|--14(15)--(14)--12--14--12--|--14(15)--(14)--12-------|
|--14(16)--(14)--12--14--12--|--14(16)--(14)--12-------|
|----------------------------|--------------------14\--|
|----------------------------|-------------------------|
|----------------------------|-------------------------|

   
   D5                        C5
|------------------------|-------------------------------------|
|------------------------|-------------------------------------|
|--7---------------------|---5---------------------------------|
|--7---------------------|---5---------------------------------|
|--5---------------------|---3---------------------------------|
|------------------------|-------------------------------------|

CHORUS
   Ace of Spades                  the   Ace of Spades          
|------------------------------------|---------------------------------|
|------------------------------------|---------------------------------|
|------------------------------------|---------------------------------|
|---------------------9--x--8--x--7--|---------------------9--x--8--7--|
|------------------------------------|---------------------------------|
|--0--0---0--0--0--0-----------------|--0--0---0--0--0--0--------------|

Riff A                             x3
|------------------------------------|---------------------------------|
|------------------------------------|---------------------------------|
|------------------------------------|---------------------------------|
|---------------------9--x--8--x--7--|---------------------9--x--8--7--|
|------------------------------------|---------------------------------|
|--0--0---0--0--0--0-----------------|--0--0---0--0--0--0--------------|
  - - - - - - - - - - - - - - - - - pm - - - - - - - - - - - - - - - - pm

BRIDGE:
[ Tab from: http://www.guitartabs.cc/tabs/m/motorhead/ace_of_spades_tab_ver_3.html ]
    E5                       D5        E5
|-------------------------------|----------------------------------------|
|-------------------------------|----------------------------------------|
|---9------------------------7--|------9---------------------------------|
|---9------------------------7--|------9---------------------------------|
|---7------------------------5--|------7---------------------------------|
|-------------------------------|----------------------------------------|


   N.C.                              E5
|--------------------------------|-----------------------------|
|--------------------------------|-----------------------------|
|--------------------------------|-----------------------------|
|--------------------------------|-----------------------------|
|--------------------------------|-----------------------------|
|--------------------------------|-----------------------------|
                                                                                     and
|----------------------------------------------------------|------------------------------|
|----------------------------------------------------------|------------------------------|
|--7-7-7---7-7--7-7-7---7-7---7--7-7---7-7-7s9--9--7--7--5-|-4--4-4----4-4--4-4-4---4--4--|
|----------------------------------------------------------|------------------------------|
|--5-5-5---5-5--5-5-5---5-5---5--5-5---5-5-5s7--7--5--5--3-|-2--2-2----2-2--2-2-2---2--2--|
|----------------------------------------------------------|------------------------------|

  
|--------------------------|
|--------------------------|
|--4-----------------------|
|--------------------------|
|--2-----------------------|
|--------------------------|

Solo
|--------------------------|----------------------|-----------------------------|
|--------------------------|----------------------|-----------------------------|
|--------------------------|----------------------|-----------------------------|
|--------------------------|-------5--7p5---5h7---|-7p5----7p5----7p5----7p5----|
|--0h3--5s7s5--3h5p3----3--|--5s7---------7-------|-----7------7------7------7--|
|--------------------5-----|----------------------|-----------------------------|

                                 B7                                   rp                  slide
|-----------------------------|------------------------------------|----------------------------|
|-----------------------------|------------------------------------|--10------------------------|
|-----------------------------|------------------------7--9BU(11)--|-(11)BD(9)--7h9p7-----/\\\\-|
|---7BU(9)--7--5------------5-|-------7--9p7----7-8s9--------------|-------------------9--------|
|-------------------7--5h7----|-7s9----------9---------------------|----------------------------|
|-----------------------------|------------------------------------|----------------------------|
                                                                                            slide up neck  
|--------------------------------------------------|----------------------------------------while picking
|-/10-10-10-10-10-10-10-10/10-10-10-10-10-10-10-10-|-10-10-10-10-11-11-11-11-12-12-13-13-14-x/x/x-|
|-/11-11-11-11-11-11-11-11/11-11-11-11-11-11-11-11-|-11-11-11-11-12-12-12-12-13-13-14-14-15-x/x/x-|
|--------------------------------------------------|----------------------------------------------|
|--------------------------------------------------|----------------------------------------------|
|--------------------------------------------------|----------------------------------------------|

|--10BU(12)BD(10)--8h10p8----8---|----8-10BU(12)BD(10)p8-----|
|-------------------------10-----|-10--------------------10--|
|--------------------------------|---------------------------|
|--------------------------------|---------------------------|
|--------------------------------|---------------------------|
|--------------------------------|---------------------------|

|-10p8-----------------------------------|-------------------------------------|
|------10--10p8---8-10BU(12)-10p8---8----|-------------------------------------|
|---------------9-----------------9------|----9---7-------------------------5--|
|----------------------------------------|------------10------7----5--h--7-----|
|----------------------------------------|-------------------------------------|
|----------------------------------------|-------------------------------------|

Riff A                             x4
|------------------------------------|
|------------------------------------|
|------------------------------------|
|---------------------9--x--8--x--7--|
|------------------------------------|
|--0--0---0--0--0--0-----------------|


VERSE 3
   
   G5
|--------------------------|--------------------------|
|--------------------------|--------------------------|
|--------------------------|--------------------------|
|--5-----------------------|--5-----------------------|
|--5-----------------------|--5-----------------------|
|--3-----------------------|--3-----------------------|
   
   G5
|-----------------------|-----------------------------|
|-----------------------|-----------------------------|
|-----------------------|-----------------------------|
|--5--------------------|---5----5-----5----5---------|
|--5--------------------|---5----5-----5----5---------|
|--3--------------------|---3----3-----3----3---------|

RIFF B:
     BU    BD                    BU     BD        slide
|----------------------------|-------------------------|
|--14(15)--(14)--12--14--12--|--14(15)--(14)--12-------|
|--14(16)--(14)--12--14--12--|--14(16)--(14)--12-------|
|----------------------------|--------------------14\--|
|----------------------------|-------------------------|
|----------------------------|-------------------------|

     BU    BD                    BU     BD       slide      
|----------------------------|-------------------------|
|--14(15)--(14)--12--14--12--|--14(15)--(14)--12-------|
|--14(15)--(14)--12--14--12--|--14(15)--(14)--12-------|
|----------------------------|--------------------14\--|
|----------------------------|-------------------------|
|----------------------------|-------------------------|

 
    D5                       C5
|------------------------|---------------------------------|
|------------------------|---------------------------------|
|---7--------------------|---5-----------------------------|
|---7--------------------|---5-----------------------------|
|---5--------------------|---3-----------------------------|
|------------------------|---------------------------------|

     BU    BD                    BU     BD        slide
|----------------------------|-------------------------|
|--14(15)--(14)--12--14--12--|--14(15)--(14)--12-------|
|--14(16)--(14)--12--14--12--|--14(16)--(14)--12-------|
|----------------------------|--------------------14\--|
|----------------------------|-------------------------|
|----------------------------|-------------------------|


    D5                        C5
|-------------------------|-------------------------------------|
|-------------------------|-------------------------------------|
|---7---------------------|---5---------------------------------|
|---7---------------------|---5---------------------------------|
|---5---------------------|---3---------------------------------|
|-------------------------|-------------------------------------|
CHORUS
   Ace of Spades                  the   Ace of Spades          
|------------------------------------|---------------------------------|
|------------------------------------|---------------------------------|
|------------------------------------|---------------------------------|
|---------------------9--x--8--x--7--|---------------------9--x--8--7--|
|------------------------------------|---------------------------------|
|--0--0---0--0--0--0-----------------|--0--0---0--0--0--0--------------|

OUTRO: w/ FILL 2
   
|--------------------------|------------------------|-----------------------|
|--------------------------|------------------------|-----------------------|
|--------------------------|------------------------|-----------------------|
|--------------------------|------------------------|--------------------5--|
|--/7-7-7-7-7-7-7-7-7-7-7--|-7-7-7-7-7-7-7-7-7-7-7--|-7-7-7-7-7-7-7-7-7-----|
|--------------------------|------------------------|-----------------------|
                                      BU        BU          BU        BU           
|-----------------------------||-------12--------12----|------12--------12-----||
|-----------------------------||.---15(17)----15(17)---|---15(17)----15(17)---.||
|-----------------------------||-----------------------|-----------------------||
|-----------------------------||-----------------------|-----------------------||
|--7--7--7-7-7--7-7-7-7--7-7--||.----------------------|----------------------.||
|-----------------------------||-----------------------|-----------------------||

   E5     D5      E5    slide        E5     D5     E5                      
|---------------------------------|---------------------|
|---------------------------------|---------------------|
|--9------7-------9---------------|--9------7------9\---|
|--9------7-------9---------------|--9------7------9\---|
|--7------5-------7---\\\\\/////--|--7------5------7\---|
|---------------------------------|---------------------|
Comments