Motorhead - Ace Of Spades Chords & Tabs

 

Ace Of Spades Chords & Tabs

Motorhead Chords & Tabs

Version: 5 Type: Bass Tab

Ace Of Spades Bass Tab

MOTORHEAD
Ace of spades
                                                                   




                                                             
G||----------------------------|----------------------------|
D||----------------------------|----------------------------|
A||--7--7-7--7-7-7-7--7--7--5--|--7--7-7--7-7-7-7--7--7--5--|
E||----------------------------|----------------------------|


                                                               
----------------------------|---------------------------------|
----------------------------|---------------------------------|
--7--7-7--7-7-7-7--7--7--5--|--7--7-9/--11-13/15/-17/-19/-24--|
----------------------------|---------------------------------|


                                                          
----------------------------|----------------------------|
----------------------------|----------------------------|
--7--7-7--7-7-7-7--7--7--5--|--7--7-7--7-7-7-7--7--7--5--|
----------------------------|----------------------------|


                                                                               
----------------------------|----------------------------|--------------------|
----------------------------|----------------------------|--2-----------------|
--7--7-7--7-7-7-7--7--7--5--|--7--7-7--7-7-7-7--7--7--5--|--------------------|
----------------------------|----------------------------|-----3--------------|


                                                                  
--------------------|--------------------|-----------------------|
--2-----------------|--2-----------------|-----------------------|
--------------------|--------------------|-----------------------|
-----3--------------|-----3--------------|--3---3---3---3---3----|


                                                          
----------------------------|----------------------------|
----------------------------|----------------------------|
--7--7-7--7-7-7-7--7--7--5--|--7--7-7--7-7-7-7--7--7--5--|
----------------------------|----------------------------|


                                                                               
----------------------------|----------------------------|--------------------|
----------------------------|----------------------------|--2-----------------|
--7--7-7--7-7-7-7--7--7--5--|--7--7-7--7-7-7-7--7--7--5--|--------------------|
----------------------------|----------------------------|-----3--------------|


                                                                               
--------------------|----------------------------|----------------------------|
--2-----------------|----------------------------|----------------------------|
--------------------|--7--7-7--7-7-7-7--7--7--5--|--7--7-7--7-7-7-7--7--7--5--|
-----3--------------|----------------------------|----------------------------|


                                                                       
--------------------|--------------------|----------------------------|
--2-----------------|--2-----------------|----------------------------|
--------------------|--------------------|--7--7-7--7-7-7-7--7--7--5--|
-----3--------------|-----3--------------|----------------------------|


                                                          
----------------------------|----------------------------|
----------------------------|----------------------------|
--7--7-7--7-7-7-7--7--7--5--|--7--7-7--7-7-7-7--7--7--5--|
----------------------------|----------------------------|


                                                                       
----------------------------|--------------------|--------------------|
----------------------------|--2-----------------|--2-----------------|
--7--7-7--7-7-7-7--7--7--5--|--------------------|--------------------|
----------------------------|-----3--------------|-----3--------------|


                                                                          
--------------------|-----------------------|----------------------------|
--2-----------------|-----------------------|----------------------------|
--------------------|-----------------------|--7--7-7--7-7-7-7--7--7--5--|
-----3--------------|--3---3---3---3---3----|----------------------------|


                                                          
----------------------------|----------------------------|
----------------------------|----------------------------|
--7--7-7--7-7-7-7--7--7--5--|--7--7-7--7-7-7-7--7--7--5--|
----------------------------|----------------------------|


                                                                       
----------------------------|--------------------|--------------------|
----------------------------|--2-----------------|--2-----------------|
--7--7-7--7-7-7-7--7--7--5--|--------------------|--------------------|
----------------------------|-----3--------------|-----3--------------|


                                                                               
----------------------------|----------------------------|--------------------|
----------------------------|----------------------------|--2-----------------|
--7--7-7--7-7-7-7--7--7--5--|--7--7-7--7-7-7-7--7--7--5--|--------------------|
----------------------------|----------------------------|-----3--------------|


                                                                               
--------------------|----------------------------|----------------------------|
--2-----------------|----------------------------|----------------------------|
--------------------|--7--7-7--7-7-7-7--7--7--5--|--7--7-7--7-7-7-7--7--7--5--|
-----3--------------|----------------------------|----------------------------|


                                                          
----------------------------|----------------------------|
----------------------------|----------------------------|
--7--7-7--7-7-7-7--7--7--5--|--7--7-7--7-7-7-7--7--7--5--|
----------------------------|----------------------------|


                                                                               
----------------------------|----------------------------|--------------------|
----------------------------|----------------------------|--------------------|
--7--7-7--7-7-7-7--7--7--5--|--7--7-7--7-7-7-7--7--7--5--|--7--------------5--|
----------------------------|----------------------------|--------------------|

[ Tab from: http://www.guitartabs.cc/tabs/m/motorhead/ace_of_spades_btab_ver_5.html ]
                                                                               
-------------------|----|--------------------------|--------------------------|
-------------------|----|--2--2--2--2--2--2--2--2--|--0--0--0--0--0--0--0--0--|
--7----------------|----|--------------------------|--------------------------|
-------------------|----|--------------------------|--------------------------|


                                                         
-----------------------------|--------------------------|
--0--0--0--0--2----0---------|--------------------------|
------------------------3----|--2--2--2--2--2--2--2--2--|
-----------------------------|--------------------------|


                                                      
--------------------------|--------------------------|
--------------------------|--------------------------|
--2--2--2--2--2--2--2--2--|--------------------------|
--------------------------|--5--------5----5----5----|


                                                      
--------------------------|--------------------------|
--------------------------|--------------------------|
--------------------------|--------------------------|
--5--------5----5----5----|--5--------5----5----5----|


                                                        
----------------------------|--------------------------|
----------------------------|--------------------------|
----------------------------|--------------------------|
--5----5----5----5----5--5--|--7--------7----7----7----|


                                                      
--------------------------|--------------------------|
--------------------------|--------------------------|
--------------------------|--------------------------|
--7--------7----7----7----|--7--------7----7----7----|


                                                        
----------------------------|--------------------------|
----------------------------|--------------------------|
----------------------------|--------------------------|
--7----7----7----7----7--7--|--5--------5----5----5----|


                                                      
--------------------------|--------------------------|
--------------------------|--------------------------|
--------------------------|--------------------------|
--5--------5----5----5----|--5--------5----5----5----|


                                                          
----------------------------|----------------------------|
----------------------------|----------------------------|
----------------------------|--7--7-7--7-7-7-7--7--7--5--|
--5----5----5----5----5--5--|----------------------------|


                                                          
----------------------------|----------------------------|
----------------------------|----------------------------|
--7--7-7--7-7-7-7--7--7--5--|--7--7-7--7-7-7-7--7--7--5--|
----------------------------|----------------------------|


                                                                               
----------------------------|----------------------------|--------------------|
----------------------------|----------------------------|--2-----------------|
--7--7-7--7-7-7-7--7--7--5--|--7--7-7--7-7-7-7--7--7--5--|--------------------|
----------------------------|----------------------------|-----3--------------|


                                                                  
--------------------|--------------------|-----------------------|
--2-----------------|--2-----------------|-----------------------|
--------------------|--------------------|-----------------------|
-----3--------------|-----3--------------|--3---3---3---3---3----|


                                                          
----------------------------|----------------------------|
----------------------------|----------------------------|
--7--7-7--7-7-7-7--7--7--5--|--7--7-7--7-7-7-7--7--7--5--|
----------------------------|----------------------------|


                                                                               
----------------------------|----------------------------|--------------------|
----------------------------|----------------------------|--2-----------------|
--7--7-7--7-7-7-7--7--7--5--|--7--7-7--7-7-7-7--7--7--5--|--------------------|
----------------------------|----------------------------|-----3--------------|


                                                                               
--------------------|----------------------------|----------------------------|
--2-----------------|----------------------------|----------------------------|
--------------------|--7--7-7--7-7-7-7--7--7--5--|--7--7-7--7-7-7-7--7--7--5--|
-----3--------------|----------------------------|----------------------------|


                                                                       
--------------------|--------------------|----------------------------|
--2-----------------|--2-----------------|----------------------------|
--------------------|--------------------|--7--7-7--7-7-7-7--7--7--5--|
-----3--------------|-----3--------------|----------------------------|


                                                          
----------------------------|----------------------------|
----------------------------|----------------------------|
--7--7-7--7-7-7-7--7--7--5--|--7--7-7--7-7-7-7--7--7--5--|
----------------------------|----------------------------|


                                                          
----------------------------|----------------------------|
----------------------------|----------------------------|
--7--7-7--7-7-7-7--7--7--5--|--7--7-7--7-7-7-7--7--7--5--|
----------------------------|----------------------------|


                                                          
----------------------------|----------------------------|
----------------------------|----------------------------|
--7--7-7--7-7-7-7--7--7--5--|--7--7-7--7-7-7-7--7--7--5--|
----------------------------|----------------------------|


                                                          
----------------------------|----------------------------|
----------------------------|----------------------------|
--7--7-7--7-7-7-7--7--7--5--|--7--7-7--7-7-7-7--7--7--5--|
----------------------------|----------------------------|


                                                                           
----------------------------|---------------------|----------------------||
----------------------------|---------------------|----------------------||
--7--7-7--7-7-7-7--7--7--5--|--7---5---7----------|--7---5---7/-----x----||
----------------------------|---------------------|----------------------||



Tabbed by Ed_Hunter