Motorhead - Ace Of Spades Chords & Tabs

 

Motorhead Chords & Tabs

Version: 4 Type: Bass Tab 0 ratings
1 star 2 stars 3 stars 4 stars 5 stars
comments

Ace Of Spades Bass Tab

   
BASS
MOTORHEAD
ACE OF SPADES

TABBED BY BMILNE
EADG

RIFF
G-------------------------|
D-------------------------|
A-6-6-6-6-6-6-6-6-6-6-4---|
E-------------------------|

RIFF
G------|
D------|
A-6\---
E------

RIFF "IF U WANT TO GAMBLE..."
G----------------------------------------|
D----------------------------------------|
A-9-9-9-9-9-9-9-9-9-9-9-9-9-9-9-9-9-9-9--|
E----------------------------------------|
[ Tab from: http://www.guitartabs.cc/tabs/m/motorhead/ace_of_spades_btab_ver_4.html ]
RIFF
G--------------|
D--------------|
A-4-6---4-6----|
E--------------|

RIFF
G-----------------------------------------------------------|
D-----------------------------------------------------------|
A-6-6-6-6-6-6-6-6-6-6-6-6-8-6-4-3-3-3-3-3-3-3-3-3-3-3-3-3---|
E-----------------------------------------------------------|

END
G-------------------|
D-------------------|
A-6-4-6\---6-4-6\---|
E-------------------|

THATS ALL.
E
Comments