Motor Ace - Pieces Chords & Tabs

 

Pieces Chords & Tabs

Motor Ace Chords & Tabs

Version: 1 Type: Tab 0 ratings
1 star 2 stars 3 stars 4 stars 5 stars
comments

Pieces Tab

   
tab by paulo..
pieces..Motor Ace
[ Tab from: http://www.guitartabs.cc/tabs/m/motor_ace/pieces_tab.html ]
intro..
----------:e
-3-3-x-3-2:b
-2-2-2-2-2:g
-0-0-2-2-2:d
-0-2-0-0-0:a
-2-3------:e
pre..
-2--------:e
-3-3-3-2-3:b
-4-2-2-2-2:g
-4-0-0-2-2:d
-2-2-2-0-0:a
-x-x-3----:e
chorus..
-0---------0-5-------:e
-3-3-x-3-2-3-3-x-3-2-:b
-2-2-2-2-2-2-2-2-2-2-:g
-0-0-2-2-2-0-0-2-2-2-:d
-2-2-0-0-0-2-x-0-0-0-:a
-3-2-------3-x-------:e
piano outro..
-2----:-5-2-:e
---3-5:----5:b
--2-2-:-----:g
------:-----:d

Comments