Motor Ace - Hey Driver Chords & Tabs

 

Hey Driver Chords & Tabs

Motor Ace Chords & Tabs

Version: 1 Type: Bass Tab 0 ratings
1 star 2 stars 3 stars 4 stars 5 stars
comments

Hey Driver Bass Tab

   
Motor Ace - Keeping Secrets

Tabbed By Stephen Pang (piequat@hotmail.com)

* Dropped D Tuning *

Intro
G|-------|
D|-------|
A|-------| x 2
D|-2/14\-|

G|--------------------|
D|--------------------|
A|-/5-----/5----------| x 6
D|----2--2---2--2-5-7-|

G|-------|
D|-------|
A|-/5/19-|
D|-------|

Verse
G|-----------------------------|
D|-----------------------------| play this everytime the verse
A|----------------------3-3----| riff comes back in, then...
D|-0h2-2--0-0h2-2-x-x-x------0-|

G|-------------------------|
D|-------------------------|
A|------------------3-3----| until needed
D|-0h2-2--0-0h2-2-x------0-|
[ Tab from: http://www.guitartabs.cc/tabs/m/motor_ace/hey_driver_btab.html ]
Chorus
G|---------|-------------|---------|---------|
D|---------|-------------|---------|---------|
A|-7-7-7-7-|-10-10-10-10-|-3-3-3-3-|-5-5-5-5-|
D|---------|-------------|---------|---------|

G|---------|-------------|---------|---------|
D|---------|-------------|---------|---------|
A|-7-7-7-7-|-10-10-10-10-|-3-3-3-3-|-7-7-5-5-|
D|---------|-------------|---------|---------|

Bridge
G|--------------------|--------------|
D|--------------------|--------------|
A|-3--7--10--3--7--5--|-3--7--10--3--|
D|--------------------|--------------|

Ending
G|---------|-------------|---------|---------|
D|---------|-------------|---------|---------|
A|-7-7-7-7-|-10-10-10-10-|-3-3-3-3-|-7-7-5-5-| until needed, then...
D|---------|-------------|---------|---------|

G|-----|
D|-----|
A|-----| until the end
D|-2-2-|
Comments