Motor Ace - Criminal Past Chords & Tabs

 

Criminal Past Chords & Tabs

Motor Ace Chords & Tabs

Version: 2 Type: Bass Tab 0 ratings
1 star 2 stars 3 stars 4 stars 5 stars
comments

Criminal Past Bass Tab

   
Song: Criminal Past
Artist: Motor Ace
EP: Debut EP
Tabbed by: Ward Sims (wardsims@hotmail.com)
Plectrum? Yes

Intro:
G|---------------------------------------------------------------
D|---------------------------------------------------------------
A|---------------------------------------------------------------
E|----5-5-5-5-7-7-7-7---10-10-10-10-10-10-10----10-10-10-10-10-10

Verse (Outro as well):
G|---------------------------------------------------------------
D|---------------------------------------------------------------
A|---------------------------------------------------------------
E|---5-5-5-5-7-7-7-7-----5-5-5-5-7-7-7-7-10-10-10-10-10-10-10----

G|---------------------------------------------------------------
D|---------------------------------------------------------------
A|---------------------------------------------------------------
E|---5-5-5-5-7-7-7-7-7-7-\1-5-5-5-5-7-7-7-7-10-10-10-10-10-10-10-

Pre-Chorus:
G|---------------------------------------------------------------
D|---------------------------------------------------------------
A|---7------5---------7------5-5-5-5-5-5-5-5---------------------
E|---------------------------------------------------------------
[ Tab from: http://www.guitartabs.cc/tabs/m/motor_ace/criminal_past_btab_ver_2.html ]
Chorus:
G|---------------------------------------------------------------
D|---------------------------------------------------------------
A|---5-5-5-5-5-5-7-7-7-7-7-7--5-5-5-5-5-5-7-7-7-7-7-7------------
E|---------------------------------------------------------------

G|---------------------------------------------------------------
D|---------------------------------------------------------------
A|---9-9-9-9-9-9-7-7-7-7-7-7-5-----------------------------------
E|---------------------------------------------------------------

Bridge:
G|---------------------------------------------------------------
D|---------------------------------------------------------------
A|---4-4-4-4-5-5-5-5-----4-4-4-4-5-5-5-5-------------------------
E|-----------------------------------------5-5--1-1--------------

G|---------------------------------------------------------------
D|---------------------------------------------------------------
A|---4-4-4-4-5-5-5-5-----4-4-4-4-5-5-5-5--------7-7--------------
E|-----------------------------------------5-5-------------------

Finishes on A (E|-5-)
Order:
Intro
Verse X2
Pre-Chorus
Chorus X2
Intro
Verse X2
Pre-Chorus
Chorus X2
Bridge
Pre-Chorus
Chorus X2
Outro X2
Any problems or corrections email me (wardsims@hotmail.com)
By the way, American Shoes is on its way....
Comments