Motor Ace - Chairman Of The Board Chords & Tabs

 

Chairman Of The Board Chords & Tabs

Motor Ace Chords & Tabs

Version: 2 Type: Tab 0 ratings
1 star 2 stars 3 stars 4 stars 5 stars
comments

Chairman Of The Board Tab

   
Motor Ace - Chairman Of The Board
Tabbed By: eric
EMail: ezza@musician.org

tunnig:Dadgbe

intro/verse   (verse is palmed muted)

D                     E F#  A     E F#   D
-----------------------------------------2--------
----------------------------2------------3--------
----------------------------2------------2--------
-0--------------x-x---2-4---2-----2-4----0--------
-0-(let ring)---x-x---2-4---0-----2-4----0--------
-0--------------x-x---0-4---------0-4----0--------


pre chorus
(p.m--)
-2-2-2----------------------------------------------------
-3-3-3----------------------------------------------------
-2-2-2--2-2-2-------2-2-2-------2-2-2---------------------
-0-0-0--2-2-2-4-4-4-2-2-2-4-4-4-2-4-2---------------------
-0-0-0--0-0-0-4-4-4-0-0-0-4-4-4-0-2-0---------------------
-0-0-0--------2-2-2-------2-2-2---------------------------
'Working overtime....'
[ Tab from: http://www.guitartabs.cc/tabs/m/motor_ace/chairman_of_the_board_tab_ver_2.html ]
(p.m--------------------)
-2-2-2-----------------------------------------------
-3-3-3-----------------------------------------------
-2-2-2-----------------------------------------------
-0-0-0-----------------------------------------------
-0-0-0-----(repeat)----------------------------------
-0-0-0-----------------------------------------------
'by your own design'


chorus pat
      B       G#      A
---------------------------
---------------------------
------4---------------2----
------4-------6-------2----
------2-------6-------0----                          play both guitars at same pace
--------------6------------                          can't do exact timing. sorry
	


NORMAL
interlude and chorus for dave

e----------------------------------------------------------------------
b----------------------------------------------------------------------
g-16-16-16-16-13-13-13-13-14-14-14-14-14-14-14-14----------------------
d-14-14-14-14-14-14-14-14-14-14-14-14-14-14-14-14----------------------
a--0--0--0--0--0--0--0--0--0--0--0--0--0--0--0--0----------------------
D----------------------------------------------------------------------

it is right
u'll get it sooner or later
any comments
ezza@musician.org
Comments